Oops, an error
Loading. Please wait.

Para Ti Madrecita Tab

76 views 9 this week
no commentswrite comment
1 2 3 4 5
3 more votes to show rating
add to favorites
launch autoscroll
font size
0
reset
how to read this tab
guitar tuner
×
Best way to learn
"Para Ti Madrecita"
Autoscroll
slow
fast
+/-
esc
set tempo
stop
 

Esta armonisado en el requinto.........ok

PRIMERA INTRODUCCION
E -0-1-0-0-0---------0--
B ------3---3-1-0-1-3-1-
G --------2------------2


E -0-1-0-0----0-3-2-3-5-1
B ------3----2--5-4-5-6-3
G --------2-2------------


E -1-0-0-1-0----1-1-5-5-3-1-0---0
B ----3-----3-3-3-3-6-6-5-3-1-3-1
G ----------4-3---------------4--


E -1-0-0-1-0-2-2-3-3-4-4-5-6-5-5-6-5--
B ----------------------------------5-
G -----------------------------------5


SEGUNDA INTRODUCCION

E -0---0-1-2-3-3-5-3-1-1-5-3-5-3-3
B -1-3-1-3-4-5-5-5-5-3-3-5-5-5-5-5
G ---4----------------------------


E -0---0-1-2-3-3-5-3-1-1-5-5-3
B -1-3-1-3-4-5-5-5-5-3-3-5-5-5
G ---4------------------------


E -0-0-1-0-7-0-4-0-7-0-4-0-8-0-5-0-8
B --4-------------------------------
G ----------------------------------


E - 8-7- 8-10- 8-7-7-5-5-3-1-0--
B -10-9-10-12-10-9-9-6-6-4-3-1-3
G -----------------------------4


E ---------0-5
B --------1--5
G -2-2-1-2---5

PARA CUALQUIER PREGUNTA: HELUAGUI@
Suggest correction
Give kudos to tab author, rate the tab!
1 2 3 4 5
comments
print report bad tab
guest
You may want to rate the tab now too:
select rating
Wanna post a correction for this tab? Suggest correction