Oops, an error
Loading. Please wait.

Rondando Tu Esquina Tab

160 views 1 this week
no commentswrite comment
1 2 3 4 5
3 more votes to show rating
add to favorites
launch autoscroll
font size
0
reset
how to read this tab
guitar tuner
×
Best way to learn
"Rondando Tu Esquina"
Autoscroll
slow
fast
+/-
esc
set tempo
stop
      e.---11-10-13-11--10-11-9----9-8-11-9--8-9-7----7-6--------
      b.-11-----------------------9------------------7---9-7-6---
      g.------------------------------------------------------7-8
      d.---------------------------------------------------------
      a.---------------------------------------------------------
      e.---------------------------------------------------------


      e.-5-6-6-7-----------|
      b.--------9-7-6------|
      g.-------------7-8---|
      d.-------------------|
      a.-------------------|
      e.-------------------|


      ahi esta el comienzo, pa la cancion hagan los acordes del otro muchacho
      pero suena mejor con sostenidos
Suggest correction
Give kudos to tab author, rate the tab!
1 2 3 4 5
comments
print report bad tab
guest
You may want to rate the tab now too:
select rating
Wanna post a correction for this tab? Suggest correction