Oops, an error
Loading. Please wait.

Sendas Distintas Tab

67 views 1 this week
no commentswrite comment
1 2 3 4 5
3 more votes to show rating
add to favorites
launch autoscroll
font size
0
reset
how to read this tab
guitar tuner
×
Best way to learn
"Sendas Distintas"
Autoscroll
slow
fast
+/-
esc
set tempo
stop
     
_  e||------------------3---5---3---5---------
_) B||--1---5---3---5?--5---5---5---5---------
   G||--2---4---4---4-------------------------
_  D||----------------------------------------
_) A||----------------------------------------
   E||----------------------------------------
__/


__
  
_  e||------------------------3-----------------
_) B||------------0---3---5--?5---5---3---1-----
   G||--------1-------4---4-------5---4---2-----
_  D||--2--2------------------------------------
_) A||------------------------------------------
   E||------------------------------------------
__/


__  
_  e||--------------3---5---3---5-------------
_) B||--5---3---5?--5---5---5---5-------------
   G||--4---4---4---5-------------------------
_  D||----------------------------------------
_) A||----------------------------------------
   E||----------------------------------------
__/


  
_  e||--------------------------------------
_) B||------------0---3---5--?5---1---------
   G||--------1-------4---4---4---2---------
_  D||--2--2--------------------------------
_) A||--------------------------------------
   E||--------------------------------------
__/


  
_  e||-----------------0---------
_) B||-----------------0-----?---
   G||------------2----2---------
_  D||--2-----2--------2---------
_) A||-----3-----------1---------
   E||-----------------0---------
__/
Suggest correction
Give kudos to tab author, rate the tab!
1 2 3 4 5
comments
print report bad tab
guest
You may want to rate the tab now too:
select rating
Wanna post a correction for this tab? Suggest correction