Oops, an error
Loading. Please wait.

Creo En Ti Tab

version 1
version 1

Whole song

Interactive

283 views 3 this week
no commentswrite comment
1 2 3 4 5
1 last vote to show rating
add to favorites
launch autoscroll
font size
0
reset
how to read this tab
guitar tuner
×
Best way to learn
"Creo En Ti"
Autoscroll
slow
fast
+/-
esc
set tempo
stop
bueno esta, esta muy facilita

ahi les va

E|-------------------|-------------------|-------------------
B|------------0--2---|-------------3--0--|------------0--2---
G|--------2---0--2---|--------2----2--0--|--------2---0--2---
D|--0-2-4-----0--2---|--0-2-4------0--0--|--0-2-4-----0--2---
A|-------------------|-------------------|-------------------
E------------3-------|-----------2-------|-----------3-------

E|------------------------------|
B|------------3-----------------|
G|--------------0-2h------------|
D|-------------------0-2h-------|
A|-------0-2h-------------0-2h--|
E|--0-2h------------------------|


Bm                 G
Quiero levantar mis manos
         D               A
maravilloso jesus, milagroso Señor
 Bm                         G
llena este lugar de tu presencia
          D                           A
y has descender tu poder a los que estamos aqui
          Bm   A   G                Bm  A  G
//creo en ti   jesus, y en lo que haras en mi//
   D         A
en mi.... en mi


Recibe
Bm
toda la gloria
G
toda la honra
     D            A
precioso hijo de Dios
Suggest correction
Give kudos to tab author, rate the tab!
1 2 3 4 5
comments
print report bad tab
guest
You may want to rate the tab now too:
select rating
Wanna post a correction for this tab? Suggest correction