Oops, an error
Loading. Please wait.

Creo En Ti Tab

version 2
version 2

Whole song

Interactive

179 views 1 this week
no commentswrite comment
1 2 3 4 5
3 more votes to show rating
add to favorites
launch autoscroll
font size
0
reset
how to read this tab
guitar tuner
Autoscroll
slow
fast
+/-
esc
set tempo
stop
Intro:   // G/Gadd2   A   F#/D   G
            G/Gadd2   A   Bm7 //
TAB DOS VECES
E---------------|---------------|--------------|-------------------------|
B-----------0-2-|-----------3-0-|----------0-2-|----------3--------------|
G-------2---0-2-|-------2---2-0-|-------2--0-2-|-----------0-2h----------|
D-0-2-4-----0-2-|-0-2-4-----0-0-|-0-2-4----0-2-|---------------0-2h------|
A---------------|---------------|--------------|-----0-2h-----------0-2h-|
E---------3-----|---------2-----|---------3----|-0-2h--------------------|

*Estrofa*
Bm7                G
Quiero levantar a ti mis manos
         D               Aadd9
Maravilloso Jesús, milagroso Señor
 Bm7                        G
Llena este lugar de tu presencia
          D                           Aadd9
Y has descender tu poder a los que estamos aquí

(Pre coro)
          Bm7   Aadd9   G                Bm7  Aadd9  G        Dmaj7  A
//creo en ti   Je------sús, y en lo que harás en     mi//  en mi.-... en mi

Coro
          Bm7             G6                  D           A
//Recibe, toda la gloria, toda la honra, precioso hijo de Dios//

*Estrofa*
Pre coro
(Coro)

(Solo) // Bm7   Gadd9   D  *Dsus2*   Aadd9 //

  Bm7                             Gadd9                D
G-----------------------------11s7---------------------7-9-7-9---
B---7-----------7-10-7--------------8-7-7-8-8s10-10---------5s7--
e------10-9-9*---------5s7---------------------------------------

             Aadd9                  Bm7                              Gadd9
A---------------------------------------------------------------------
D------------------4--------------------------------------------------
G--------------4-2---2s4s2--------------------------------------------
B--5-3-2-3-2------------------7-7--------------10-10---10--10--10-----
e-----------------------------------10-9-9s12------------7----7----7--

                          D                                              A
E-----------------------------------------------------------------------9--
A----------------------------------------------------9-----9-----9-7----7--
D------------------------------------9-7-------9-7----7-----7--------------
G--7s9-7-9-7-9---------------9-7-------7s9---------------------------------
B---------------5h7--------------------------------------------------------
e----------------------5-5s7-----------------------------------------------


/////Coro/////
Suggest correction
Give kudos to tab author, rate the tab!
1 2 3 4 5
comments
print report bad tab
guest
You may want to rate the tab now too:
select rating
Wanna post a correction for this tab? Suggest correction