Oops, an error
Loading. Please wait.

En Tu Bolsillito Chords

20 views 1 this week
no commentswrite comment
1 2 3 4 5
3 more votes to show rating
add to favorites
×
Save as Personal and add changes to this tab that will be seen only by you. Learn more ›
×
You can save this tab as Personal to edit and correct it or add notes. All changes will be seen only by you. Learn more »
save as personal
new!
launch autoscroll
font size
0
reset
transpose
0
reset
display chords
guitar tuner
Autoscroll
slow
fast
+/-
esc
set tempo
stop
Strumming
There is no strumming pattern for this song yet. and get +5 IQ
 N O T A: 

**Si tenes pedalera mucho mejor, para que le des el efecto al punteo 
que tiene la cancion, de lo contrario 
  no sonara igual, pues el efecto tiene algo de eco.

**Si tenes una Zoom 505 II, te puedo dar una configuracion del 
efecto, no igual pero sirve para acompañarla,
  solo escribeme al mail.

**Es una buena cancion, talento 100% Colombiano.!!!


Los Arpegios son sencillos, iguales, solo que se marca al aire 
el bajo de la nota que va en la estrofa.

   ARPEGIO EN 'E'             ARPEGIO EN 'A'
          E                     A
E ----0-----0-------         E ----0-----0-------      
B ------2-----2-----         B ------2-----2-----
G ------------------         G ------------------
D ------------------         D ------------------
A ------------------         A --0-----0---------
E --0----0----------         E ------------------


INTRO

E  A (x 4)


E             A  E               A        
LLevame lejos,   en tu bolsillito
E                  A 
hazme sentir como un niño,
          E        A              
Una vez mas
E            A   E               A
LLevame lejos,   en tu bolsillito
C#m             F#m            
No me dejes Oh,
A                                   E   A      
Me pondre a llorar, me pondre muy mal ayayay...
E     A
ayayay.


      
PUNTEO 
Se intercalan los acordes  E   A(x 4)

      E           A
E ----4----2------------------------------
B ------------5---2-----5-4-5------------
G ---------------------------------------   
D ---------------------------------------  
A ---------------------------------------  
E ---------------------------------------


E             A  E               A        
LLevame lejos,   en tu bolsillito
E                  A 
hazme sentir como un niño,
  E        A              
Una vez mas
E                A E             A   
Cuando estoy solo, yo te recuerdo
E                     A            
cuando me hacias cosquillas
        E                   A       E
reir y reir ay amor ahora mira,
        A
Solo estoy...
E            A       
Que solo estoy


C#m           F#m
Mirando el azul,
C#m          F#m 
de la madrugada
             A                  E   A    E  A      
esperando en la cama a que aparezcas tu, uhh


C#m           F#m
Mirando el azul,
C#m          F#m 
de la madrugada
             A                  E   A    E  A      
esperando en la cama a que aparezcas tu, uhh


PUNTEO FINAL
Se intercalan los acordes  E   A (x 12)

      E           A
E ----4----2-----------------------------
B ------------5---2-----5-4-5------------
G ---------------------------------------   
D ---------------------------------------  
A ---------------------------------------  
E ---------------------------------------


ES TODO,, SUGERENCIAS O CORRECCIONES AL MAIL POR FAVOR... GRACIAS Y DISFRUTENLA!!!

visiten 
Suggest correction
Give kudos to tab author, rate the tab!
1 2 3 4 5
comments
print report bad tab
guest
Wanna post a correction for this tab? Suggest correction