Oops, an error
Loading. Please wait.

Maldita Flor Tab

179 views 3 this week
no commentswrite comment
1 2 3 4 5
3 more votes to show rating
add to favorites
launch autoscroll
font size
0
reset
how to read this tab
guitar tuner
×
Best way to learn
"Maldita Flor"
Autoscroll
slow
fast
+/-
esc
set tempo
stop
Todos los versos se tocan como estan en la explicacion,
si no que coloque las notas acambio del tab.

en la parte de *  y ** no supe llamar estas notas
pero el tab es bien sencillo.

Cualquier inconveniente mirar youtube maldita flor acustico

o jjmusica@

INTRO
   Am      FA         MI
E---------------0--------------0---
B----0------0----0------------0----
G-----5------5----5---------7------
D--7---7------7-----7-----6--------
A---------8-------------7----------
E----------------------------------

VERSOS

        Am      FA        MI
            ^tap    ^tap
E-----------------x-------0------x--
B----------0----0-x------0----0--x--
G----------5----5-x-----7-----7--x--
D--------7------7-x-----------6--x--
A-------------8---x---7-------7--x--
E-----------------x--------------x--
  si supieras        como estoy

   Am    FA          MI
quizas me querrias un poco al menos
   Am      FA          MI
si supieras todo lo que he bebido
 Am                      *     **    Am    FA    MI
y sientieras la rabia que me llena por dentro no uouo

   *       **
      ^tap     ^tap
E-----0-----------0------
B-----0-----------0------
G--9--9-----7-----9------
D--7--7-----6-----7------
A--8--8-----7-----8------
E------------------------

          Am   FA            MI
no serias asi y me quiero morir
  Am            FA            MI
por que mis amigos me sostienen
  Am     FA      MI
sino me tiro del puente solo quiero sufrir
 Am      FA                     MI                   MI
aunque mañana frente a frente te saludare de besos
 Am        FA         MI                          Am   FA
sonreire te dire cosas lindas y te gritare en mi mente

(Aqui si tocan las notas que son)

   Am   FA   MI  MI*  A
E---0----1----0---0---5-
B---1----1----0---0---5-
G---2----2----1---1---5-
D---2----3----2---2---7-
A---0----3----2---2---7-
E---0----1----0---3---5-

             Am        FA   MI  MI*           Am       FA MI  MI*
que maldita eres .. que maldita tu .. que maldita sos vos .....
 Am FA  MI  MI*
maldita flor
             Am        FA   MI  MI*           Am       FA MI  MI*
que maldita eres .. que maldita tu .. que maldita sos vos .....
 Am FA  MI  MI*
maldita flor

 Am FA  MI  MI*    Am FA  MI  MI*    Am FA  MI  MI*

  FA    G         A(I-7-8-5)
y te crei mi destino
  FA    G         A            MIm                 FA
y me partiste el camino en dos pensa por favor pensame
                 G   XXXXXXXXXXXXXXXXXXXXXXXXXX
ya no puedo ni verte por que me dejas como quieres
             Am        FA   MI  MI*           Am       FA MI  MI*
que maldita eres .. que maldita tu .. que maldita sos vos ..
 Am FA  MI  MI*
maldita flor
Am FA      MI  MI*  Am FA  MI  MI*  Am FA  MI  MI*
.....maldita flor
             Am        FA   MI  MI*           Am       FA MI  MI*
que maldita eres .. que maldita tu .. que maldita sos vos ..
 Am FA  MI  MI*
maldita flor ...

FINAL

         Am   FA        MI
               ^tap        ^tap
E-----------------x-------0------x--
B----------0----0-x------0----0--x--
G----------5----5-x-----7-----7--x--
D--------7------7-x-----------6--x--
A-------------8---x---7-------7--x--
E-----------------x--------------x--

E--------------7-8-7-0-------------0--
B------------0---------0----------5---
G----------5-------------5-------5----
D--------7-----------------7----7-----
A------0-----------------------0------
E-----------------------------0-------
Suggest correction
Give kudos to tab author, rate the tab!
1 2 3 4 5
comments
print report bad tab
guest
You may want to rate the tab now too:
select rating
Wanna post a correction for this tab? Suggest correction