Oops, an error
Loading. Please wait.

No Tengas Prisa chords

version 2
version 2

Whole song

26 views 1 this week
no commentswrite comment
1 2 3 4 5
3 more votes to show rating
add to favorites
×
Save as Personal and add changes to this tab that will be seen only by you. Learn more ›
×
You can save this tab as Personal to edit and correct it or add notes. All changes will be seen only by you. Learn more »
launch autoscroll
font size
0
reset
transpose
0
reset
simplify chords
display chords
guitar tuner
edit
Autoscroll
slow
fast
+/-
esc
set tempo
stop
Strumming
There is no strumming pattern for this song yet. and get +5 IQ
ME PLACE ASEGURARLES ËSTA CORRECCIÓN?
CON DEDICACIÓN A MI NENITA CONSENTIDA, QUIEN CON SU INOCENCIA
DESCONOCE TODAVÍA EL PREÁMBULO DEL PROFUNDO AMOR,
?mi querida princesa?, LA MISMA QUE CREE QUE SIN ESTO
HA ESTADO LOCAMENTE ENAMORADA, LA QUE NO SABE ENOTNCES
EL AMORAMIENTO QUE LE ESPERA?
Permanecerás en la memoria escrita de nuestra juventud,
de mis tiernos descaros. Te boleteo con cariño: JACKElinda....

              F/C(rasgueo)
e|-------------x------------------------
b|--3/5-3/1----1---3/5-3/1-----0--------
g|-------------2-----------------0------
d|-------------3-------------------2----
a|-------------3---------------3-----3--
e|--------------------------------------


              F/C(rasgueo)
e|-------------x------------------------
b|--3/5-3/1----1---3/5-3/1--------------
g|-------------2--------------------0---
d|-------------3---------------2--------
a|-------------3------------------3-----
e|--------------------------------------

  F/C                 C                                             F
Sueño con desmenuzarte ese cansancio que se esconde tras el traje elegante,
E                      Am                                   F
De verdad sueño con tenerte, déjame untarte la espalda de aceite,
          G                    C
Voy a quitarte ese nudo del cuello.

                   F/C
Porque es que me sueño con frenarte la prisa,
C                                          F
Quédate un rato te prometo pintarte una sonrisa
 E                             Am                           F
Y sofocarte en un cuarto de algodón, con olor a tabaco y vainilla,
      G                    Cmaj7
Quédate ya no tengas más prisa.


Arpegio: Cmaj7 - F/C


     C
e|-------------------
b|---0---------------
g|-----0-------------
d|-------2-----------
a|---3-----3---------
e|-------------------

     F/C
e|--------------------
b|---0---1------------
g|-----2--------------
d|--------------------
a|---3----------------
e|--------------------


F/C                 C
Verás un mundo distinto, sabes bien
    F/C                      E            F     G            Am
Que existen muchos caminos, por qué siempre caminar en el mismo?
F                           Cmaj7
Quédate verás un mundo distinto.

                   F/C
Porque es que me sueño con frenarte la prisa,
C                                           F
 Quédate un rato te prometo pintarte una sonrisa
   E                           Am                           F
Y sofocarte en un cuarto de algodón, con olor a tabaco y vainilla,
       G                 Am Am/E C (F E Am)  F G                 Cmaj7 F/C
Quédate ya no tengas más prisa???????????????ya no tengas más prisa.

C                   F/C       Am - F/C - C
Porque es que me sueño con despelucarte,
         C                                   F
Salir corriendo de tu lado después de pellizcarte
         E                Am
Y contentarte con un caramelo
                      F
Mientras te morís de risa,
      G                      Am
Quédate?..ya no tengas más prisa
                        F G   Am               F   G                 Cmaj7
Quédate, quédate, quédate..ya no tengas más prisa..ya no tengas más prisa.


2008 Cali, Colombia

F/C
              F/C: (Como Fa sin cejilla)
e|------------------------------
b|-------------1----------------
g|-------------2----------------
d|-------------3----------------
a|-------------3----------------
e|------------------------------

            
            
Suggest correction
Creating personal tab
Creating personal tab
You can edit any tab online and save it as your Personal.

You can edit, replace or remove any tab part or add personal notes – all changes will be seen only by you.

Personal tabs can be accessed anytime from any device, even offline.
Learn more »
Give kudos to tab author, rate the tab!
1 2 3 4 5
comments
print report bad tab
guest
Wanna post a correction for this tab? Suggest correction