Oops, an error
Loading. Please wait.

Maria Luisa Tab

version 1
version 1

Whole song

Interactive

14,718 views 45 this week
no commentswrite comment
1 2 3 4 5
x 5
add to favorites
launch autoscroll
font size
0
reset
how to read this tab
guitar tuner
×
Best way to learn
"Maria Luisa"
Autoscroll
slow
fast
+/-
esc
set tempo
stop
e|-----------5-7-|-8---------12-|------7-|-5--------|------------------------|
B|---0-1-/-5-----|-----5--------|---5----|-----5--5-|------------------------|
G|-2-------------|-----5--------|---7----|-----5--5-|------------------------|
D|---------------|--------------|--------|----------|------------------------|
A|---------------|-0------------|--------|-0--------|------------------------|
E|---------------|--------------|-0------|----------|------------------------|

e|-----------5-7-|-8----------7-|----5-3-|-1------|---1--5-|-7-----7-|-------|
B|---0-1-/-5-----|-----5--------|----2-2-|----3-3-|------6-|----6--6-|-------|
G|-2-------------|-----5--------|----2-2-|----2-2-|------7-|----7--7-|-------|
D|---------------|--------------|--------|-0------|-0------|-0-------|-------|
A|---------------|-0------------|-0------|--------|--------|---------|-------|
E|---------------|--------------|--------|--------|--------|---------|-------|

e|---5--7-|-8-----8-|----7--8-|-11-----|-11--11--11-|-12-|-------------------|
B|---6--6-|----5--5-|----5--5-|-----10-|-10--10--10-|-9--|-------------------|
G|---7--7-|----5--5-|----5--5-|-----11-|------------|-9--|-------------------|
D|-0------|---------|---------|-9------|-9---10--9--|----|-------------------|
A|--------|-0-------|-0-------|--------|------------|----|-------------------|
E|--------|---------|---------|--------|------------|-0--|-------------------|

e|-----------5-7-|-8-----12-|-------7-|-5-------|-----------5-7-|-8---7-|----|
B|---0-1-/-5-----|----5-----|----5----|----5--5-|---0-1-/-5-----|---5---|----|
G|-2-------------|----5-----|----7----|----5--5-|-2-------------|---5---|----|
D|---------------|----------|---------|---------|---------------|-------|----|
A|---------------|-0--------|---------|-0-------|---------------|-0-----|----|
E|---------------|----------|-0-------|---------|---------------|-------|----|

e|----5--3-|-1-------|---1--5-|-7-----6--7-|----5--7-|-8-----7--8-|---5--8--|
B|----2--2-|----3--3-|------6-|----6-----6-|----6--6-|----5-----5-|---5--5--|
G|----2--2-|----2--2-|------7-|----7-----7-|----7--7-|----5-----5-|---5--5--|
D|---------|-0-------|-0------|-0----------|-0-------|------------|---------|
A|-0-------|---------|--------|------------|---------|-0----------|-0-------|
E|---------|---------|--------|------------|---------|------------|---------|

e|-7-----12-|-------7-|-5--|----0----|----0----|-3-----1-|----1-0------|-----|
B|----5-----|----5----|-5--|----1----|----2----|----3----|---------3-1-|-----|
G|----7-----|----7----|-5--|-0-------|-2--3--2-|----2----|-------------|-----|
D|----------|---------|----|-------2-|---------|-0-------|-0-----------|-----|
A|----------|---------|-0--|-3-------|-0-------|---------|-------------|-----|
E|-0--------|-0-------|----|---------|---------|---------|-------------|-----|

e|--------0-|--------|------------|-3------|----0----|----0----|-3------1-|
B|-0--------|------3-|-1-----0--1-|--------|----1----|----2----|----3-----|
G|----0-----|---0----|----0-----0-|---0----|-0-------|-2--3--2-|----2-----|
D|----3-----|---3----|----2-----2-|--------|-------2-|---------|-0--------|
A|----------|--------|------------|--------|-3-------|-0-------|----------|
E|-3--------|-1------|-0----------|------3-|---------|---------|----------|

e|---------|-0--3--1-|-0-------|-----|-------------------------------------|
B|---1--3--|-1-------|-------3-|--1--|-------------------------------------|
G|---2--1--|-0-------|----0----|--0--|-------------------------------------|
D|-3-------|---------|----3----|--2--|-------------------------------------|
A|---------|---------|---------|--3--|-------------------------------------|
E|---------|-3-------|-3-------|-----|-------------------------------------|



************************************

| /  Slide up

************************************
Suggest correction
comments
print report bad tab
guest
You may want to rate the tab now too:
select rating
Wanna post a correction for this tab? Suggest correction