Oops, an error
Loading. Please wait.

Ruedas Tab

29 views 1 this week
no commentswrite comment
1 2 3 4 5
3 more votes to show rating
add to favorites
launch autoscroll
font size
0
reset
how to read this tab
guitar tuner
Autoscroll
slow
fast
+/-
esc
set tempo
stop
Help us to improve Ultimate-Guitar.com Take our survey!
×
ESTA CANCION INSTRUMENTAL ES MUY BONITA LA CANTO EN ESPAÑOL EN LOS
60S JULISSA.

   F                       C7                          F
e.------------1--0-----------------------0-------------------------
b.------1-----1------3-1------------1-------3--1-------------1-----
g.-2----2--2-------2-----2-----3----3----3-------3------2----2--2--
d.-3--3---------------------3--2--2----2-----------0-2--3--3-------
a.-----------------------------------------------------------------
E.-----------------------------------------------------------------

                      C7               F      F
e.-1--0------------------------------------------------------------
b.-1------3-1-----------------3-1------------10-----10--10---------
g.------2-----2-------3---0-3----------------10--10----------------
d.--------------3-------2---------0-2--3-----10--------------------
a.-----------------------------------------------------------------
E.-----------------------------------------------------------------

                        C7
e.-13---12----10------------------8------12-0-10-0------------------
b.----10---10----13-10-----11-----11----------------13-11-----------
c.------------------10--9---9-----9---------------------------------
d.---------------------------------------------------------12-14----
a.------------------------------------------------------------------
E.------------------------------------------------------------------


   F                                    C7                  F
e.--------8-------13----12----10------------------------10--------------8--
b.-10-----10--10-----10----10----13-10-------11------11----13-----------10-
c.-10--10--------------------------10-----9-12----------9--10--10----------
d.-10----------------------------------------------------------12----10----
a.-------------------------------------------------------------------12----
E.-------------------------------------------------------------------------


  Am  C7 C9  Bb F       Am  C7  Bb          F     Am  C7  C9
e.-8---------------------------------------------------8---8---------------
b.-10--11--11--11-10---10--10-------------------------10--10--11---11------
c.-9-- 12---9--10-10---10---9--12--10---10--10--10----10---9--12----9------
d.-----14--12--12-10---10--10--14---12--12--12---10-----------14---12------
a.-----------------------------13---13--13--13---12------------------------
E.-------------------------------------------------------------------------


   Bb  F       Am   C7      F
e.---------------------------------------------------------
b.-11---10---10--10---12-----------------------------------
c.-10--10--10--9---14--------------------------------------
d.--9---10---10--10---13----10--8--------------------------
a.------------------------------8--------------------------
E.---------------------------------------------------------
Suggest correction
Give kudos to tab author, rate the tab!
1 2 3 4 5
comments
print report bad tab
guest
You may want to rate the tab now too:
select rating
Wanna post a correction for this tab? Suggest correction