Oops, an error
Loading. Please wait.

Huke Tab

534 views 6 this week
no commentswrite comment
1 2 3 4 5
3 more votes to show rating
add to favorites
launch autoscroll
font size
0
reset
how to read this tab
guitar tuner
Autoscroll
slow
fast
+/-
esc
set tempo
stop
Help us to improve Ultimate-Guitar.com Take our survey!
×
"HUKE" Julius Popper

Primer single del disco homónimo "Julius Popper"
Pertenece a la banda sonora del largometraje "Galaxia Tomé"
Afinación estándar (E)

acordes

      E       G#      A       Am
e-|---0---|---4---|---5---|---0---|
B-|---0---|---4---|---5---|---1---|
G-|---1---|---5---|---6---|---2---|
D-|---2---|---6---|---7---|---2---|
A-|---2---|---6---|---7---|---0---|
E-|---0---|---4---|---5---|---0---|


E - G# - A - Am
Hace tanto tiempo que no te miraba
y ahora me vuelve a gustar
que tu me quieras tocar
todas las noches

E - G# - Am Am
Hace tanto tiempo que ya no te veo
y ahora me vuelve a gustar
que tu me quieras besar
todas las noches

Coro:

E - G# - Am Am
Empiezo a verte como ayer
termino el día sin saber
que nos dijimos
si fue el camino

Solo 1:47

e---------------------------------------------
B--7h8h7-------7h8h7--------------------------
G-------9-9----------9-8-6-5-6/8--------------
D---------------------------------------------
A---------------------------------------------
E---------------------------------------------

e-------------------------------------7-------
B---7h8h7h8h7h8h7----7---7h8-7----7h9---9h7---
G----------------9--9--9-------9-----------9--
D---------------------------------------------
A---------------------------------------------
E---------------------------------------------

E - G# - Am Am
Hace tanto tiempo que no te soñaba
y ahora te vuelvo a encontrar
y ahora te vuelvo a besar
todas las noches

E - G# - Am Am
Hace tanto tiempo que ya no jugaba
y ahora te vuelvo a llamar
MI cuchi cuchi espacial
todas las noches

Coro:
E - G# - Am Am
Empiezo a verte como ayer
termino el día sin saber
que nos dijimos
si fue el camino

E - G# - Am Am
Hace tanto tiempo que no te miraba
y ahora te vuelvo a encontrar
y ahora te vuelvo a mirar todas las noches......

Finaliza en E
Suggest correction
Give kudos to tab author, rate the tab!
1 2 3 4 5
comments
print report bad tab
guest
You may want to rate the tab now too:
select rating
Wanna post a correction for this tab? Suggest correction