Oops, an error
Loading. Please wait.

Headsick tab

547 views 3 this week
1 commentread comment
1 2 3 4 5
1 last vote to show rating
add to favorites
×
Save as Personal and add changes to this tab that will be seen only by you. Learn more ›
×
You can save this tab as Personal to edit and correct it or add notes. All changes will be seen only by you. Learn more »
launch autoscroll
font size
0
reset
how to read this tab
guitar tuner
edit
Autoscroll
slow
fast
+/-
esc
set tempo
stop
Author
Difficulty
About this tab version
This is the only version of the song posted here so I figured I'd give to the community on this. I figured this one out in about a day or so, there might be a few mistakes and I haven't figured out the solo or the bridge yet. Was this info helpful? Yes No
Headsick By July Talk

[Intro] x 2
Overdriven
e|-7-7-7-7-7-7-7-7-7-|
B|8-8-8-8-8-7-7-5-5--|
G|-------------------|
D|-------------------|
A|-------------------|
E|-------------------|

[Interlude] x 4
Overdriven
e|7-7-7-7-7-7-7-7-7-7-7-7-7-7-7-7|
B|8-8-8-8-8-8-8-8-8-8-8-8-7-7-7-7|
G|-------------------------------|
D|-------------------------------|
A|-------------------------------|
E|-------------------------------|

[Verse] x 8
Palm Muted
e|-------------------------------|
B|-------------------------------|
G|-------------------------------|
D|5-5-5-5-5-5-5-5-5-5-5-5-5-4-4-4|
A|-------------------------------|
E|-------------------------------|

[Chorus]
Overdriven
e|7-7-7-7-7-7-7-7-7-7-7-7-7-7-7-7|
B|8-8-8-8-8-8-8-8-8-8-8-8-7-7-7-7|
G|-------------------------------|
D|-------------------------------|
A|-------------------------------|
E|-------------------------------|

[Verse] x 8
Palm Muted
e|-------------------------------|
B|-------------------------------|
G|-------------------------------|
D|5-5-5-5-5-5-5-5-5-5-5-5-5-4-4-4|
A|-------------------------------|
E|-------------------------------|

[Bridge]

[Post Bridge]
Overdriven
e|-7-7-7-7-7-7-7-7-7-|
B|8-8-8-8-8-7-7-5-5--|
G|-------------------|
D|-------------------|
A|-------------------|
E|-------------------|

[Outro]
Overdriven
e|7-7-7-7-7-7-7-7-7-7-7-7-7-7-7-7|
B|8-8-8-8-8-8-8-8-8-8-8-8-7-7-7-7|
G|-------------------------------|
D|-------------------------------|
A|-------------------------------|
E|-------------------------------|

            
            
Suggest correction
Creating personal tab
Creating personal tab
You can edit any tab online and save it as your Personal.

You can edit, replace or remove any tab part or add personal notes – all changes will be seen only by you.

Personal tabs can be accessed anytime from any device, even offline.
Learn more »
Give kudos to tab author, rate the tab!
1 2 3 4 5
comments
print report bad tab
1 comment total.
0 reply
rowanhill00 41 Oct 13, 2017 03:49 AM

My absolute favourite song, I would never have figured out the intro on my own, however i feel that on the chorus it should be a bit like this:
e|-------------------------------|
B|-------------------------------|
G|-------------------------------|
D|4-4-4-4-4-4-4-4-4-4-4-4-4-2-2-2|
A|-------------------------------|
E|-------------------------------|

Everything else seems fab :)

guest
You may want to rate the tab now too:
select rating
Wanna post a correction for this tab? Suggest correction