Oops, an error
Loading. Please wait.

Lola And Joseph chords

520 views 9 this week
no commentswrite comment
1 2 3 4 5
x 6
add to favorites
×
Save as Personal and add changes to this tab that will be seen only by you. Learn more ›
×
You can save this tab as Personal to edit and correct it or add notes. All changes will be seen only by you. Learn more »
launch autoscroll
font size
0
reset
transpose
0
reset
display chords
guitar tuner
edit
Autoscroll
slow
fast
+/-
esc
set tempo
stop
About this tab version
Though the song uses few chords, this tab combines bass, guitar, and vocals into the chords that should be played. Was this info helpful? Yes No
Strumming
There is no strumming pattern for this song yet. and get +5 IQ
E chord riff after chorus:
e|------------------------------------------------------------------|
B|------------------------------------------------------------------|
G|------------------------------------------------------------------|
D|---2---0h2-----0h2--0h2-----2---0h2------2---2--2-----------------|
A|------------------------------------------------------------------|
E|----------3-0----------3-0----------3-0---------------------------|

G-to-E chord riff during chorus/bridge:
    G          E           G          E
e|--3----------0-----------3----------0--------------------------|
B|--3----------0-----------3----------0--------------------------|
G|--0----------1-----------0----------1--------------------------|
D|--0----------2-----------0----------2--------------------------|
A|--2-----0--2-2-----------2-----0--2-2--------------------------|
E|--3--0-3-----0-----------3--0-3-----0--------------------------|

[Intro]
Am E Am E

[Verse 1]
   E      
We say goodbye outside the liquor store

(I walk inside)
G         A             E
I'll stay outside for a while

(Just then I see a)
E
Stranger walk in in the stockings that he bought for me

(I shouldn't be nervous)
G              A           E
But I reach out my shaking hand

[Chorus]
                 G      E
And she says Lola
               G      E
He says Joseph
                      G      E
She buys the red wine
                    Am    G
He buys the white wine
          E
I offer a ride

[Verse 2]
   E
We drive the night, introduce ourselves

(He watches)
       G           A              E
As she crosses her legs up on the dash
                   E
I feel the need to tell her I'm a virgin from a lonely town

(She tells me that)
G          A               E
Me and my lover, we didn't last

[Chorus]
             G   E
So I say Lola
            G   E
I say Joseph
                 G     E
I want you closer
                  Am         G
So come on inside, a little closer
              E
Come into the night

[Verse 3]
E                         
Joseph, you can look but don't you touch
                                        E
When I want your hands on my skin, I'll ask
    E                             G         
But I've never done this, can you show me please?
     A                       E
Just count to five, not too fast

[Bridge]
    G   E
One,
      G   E
T-two,
      G   E
Three,
     Am  G 
Four, 

[Chorus] 
          G   E
I say Lola
               G   E
I wanna know ya
           G   E
Hey Joseph
              Am    G   
Come on closer

[Outro]
  E  
(Not myself)
    G      E
I'm not myself

(I'm someone else)
    G       E
I'm not myself

(Not myself)
    G      E
I'm not myself

(I'm someone else)
    Am      G 
I'm not myself
                  E
(I'm someone else)

            
            
Suggest correction
Creating personal tab
Creating personal tab
You can edit any tab online and save it as your Personal.

You can edit, replace or remove any tab part or add personal notes – all changes will be seen only by you.

Personal tabs can be accessed anytime from any device, even offline.
Learn more »
comments
print report bad tab
guest
You may want to rate the tab now too:
select rating
Wanna post a correction for this tab? Suggest correction