Oops, an error
Loading. Please wait.

Paper Girl tab

3,396 views 21 this week
no commentswrite comment
1 2 3 4 5
x 4
add to favorites
×
Save as Personal and add changes to this tab that will be seen only by you. Learn more ›
×
You can save this tab as Personal to edit and correct it or add notes. All changes will be seen only by you. Learn more »
launch autoscroll
font size
0
reset
how to read this tab
guitar tuner
edit
Autoscroll
slow
fast
+/-
esc
set tempo
stop
Author
Difficulty
-------------------------------------------------------------------------------
                             Paper Girl - July Talk
-------------------------------------------------------------------------------
Tabbed by: Max Horne
E-mail:

Tuning:Standard

Intro
e|-----------------------|     |------------------------|
B|-----------------------|     |------------------------|
G|-----------------------| x3  |------------------------| 
D|------2---------0--2---|     |------2----------0--2---|
A|---------2---2---------|     |---------2---22---------|
E|--0--------------------|     |--0---------------------|
     
Guy Verse
e|--------------------------------------------|
B|--------------------------------------------|
G|-------------------------------------0------| x2
D|------2---------0--2-------2------------2---|
A|---------2---2----------------2---2---------|
E|--0---------------------0-------------------|

e|------------------------------|
B|------------------------------|
G|------------------------------|
D|--5--5--5--5--4--4--4--4--2---|
A|--5--5--5--5--4--4--4--4--2---|
E|--3--3--3--3--2--2--2--2--0---|

e|----------------------------------------------------------------------------------------|
B|----------------------------------------------------------------------------------------|
G|-----------------------------------------------------------0---------------------0------| 
D|------2---------0--2-------2---------0--2--------2------------2--------2------------2---|
A|---------2---2----------------2---2-----------------2---2-----------------2---2---------|
E|--0---------------------0--------------------0---------------------0--------------------|

e|--------------------------------------------|
B|--------------------------------------------|
G|--------------------------------------------| 
D|------2---------0--2-------2---------0--2---|
A|---------2---2----------------2---2---------|
E|--0---------------------0-------------------|

e|------------------------------|
B|------------------------------|
G|------------------------------|
D|--5--5--5--5--4--4--4--4--2---|
A|--5--5--5--5--4--4--4--4--2---|
E|--3--3--3--3--2--2--2--2--0---|

e|--------------------------------------------|
B|--------------------------------------------|
G|--------------------------------------------| 
D|------2---------0--2-------2---------0--2---|
A|---------2---2----------------2---2---------|
E|--0---------------------0-------------------|

e|------------------------------|
B|------------------------------|
G|------------------------------|
D|--5--5--5--5--4--4--4--4--2---|
A|--5--5--5--5--4--4--4--4--2---|
E|--3--3--3--3--2--2--2--2--0---|

e|-----------------------------------------------------------------------|
B|-----------------------------------------------------------------------|
G|-----------------------------------------------------------------------| 
D|------2---------0--2--------2----------0--2--------2----------0h2------|
A|---------2---2-----------------2---22-----------------2---22-----------|
E|--0---------------------0----------------------0-------------------0---|

Girl Verse

e|---3--3--3--3--7--7--7--7--0--0--0--0--0--0--0--0--3--3--3--3--7--7--7--7--|
B|---3--3--3--3--0--0--0--0--5--5--5--5--1--1--1--1--3--3--3--3--0--0--0--0--|
G|---------------------------------------------------------------------------|
D|---------------------------------------------------------------------------|
A|---------------------------------------------------------------------------|
E|---------------------------------------------------------------------------|

Two guitar parts here. First one is 1:02 - 1:17

e|----------------------------------------------------------------------------------------|
B|----------------------------------------------------------------------------------------|
G|----------------0-------------------------------------------0---------------------------| x2
D|------2------------2-------2---------0--2--------2------------2--------2----------0--2--|
A|---------2---2----------------2---2-----------------2---2-----------------2---2---------|
E|--0---------------------0--------------------0---------------------0--------------------|

This one is just an E power chord over and over again. In order to get that bend sound,
I like to put pressure on the neck of my guitar, pulling it towards myself. If you don't 
want to do that, just bend the notes.

e|---------------------------------------------------------------------------|
B|---------------------------------------------------------------------------|
G|---------------------------------------------------------------------------|
D|--2b3-------------------2b3-------------------2b3-------------------2b3----|
A|--2b3-------------------2b3-------------------2b3-------------------2b3----|
E|--0---------------------0---------------------0---------------------0------|

*When playing the bar chords, guitar one plays what is below, but guitar two will play the d
bar chord instead of the f#
e|------------------------------|
B|------------------------------|
G|------------------------------|
D|--5--5--5--5--4--4--4--4--2---|
A|--5--5--5--5--4--4--4--4--2---|
E|--3--3--3--3--2--2--2--2--0---|

Then this repeats again, but shortened.
G1
e|---------------------------------------------|
B|---------------------------------------------|
G|----------------0----------------------------|
D|------2------------2-------2---------0--2----|
A|---------2---2----------------2---2----------|
E|--0---------------------0--------------------|

G2
e|--------|
B|--------|
G|--------|
D|--2b3---|
A|--2b3---|
E|--0-----|

e|------------------------------|
B|------------------------------|
G|------------------------------|
D|--5--5--5--5--4--4--4--4--2---|
A|--5--5--5--5--4--4--4--4--2---|
E|--3--3--3--3--2--2--2--2--0---|

G1
e|--------------------------|
B|--------------------------|
G|----------------0---------|
D|------2------------2------|
A|---------2---2------------|
E|--0-------------------0---|

G2
e|--------|
B|--------|
G|--------|
D|--2b3---|
A|--2b3---|
E|--0-----|

e|---------------------------------------|
B|---------------------------------------|
G|--------------7--7--7--7---------------| x2
D|--5--5--5--5--7--7--7--7--2--2--2--2---|
A|--5--5--5--5--5--5--5--5--2--2--2--2---|
E|--3--3--3--3--------------0--0--0--0---|

e|---------------------------------------------------|
B|---------------------------------------------------|
G|--------------7--7--7--7--------------5--5--5--5---|
D|--5--5--5--5--7--7--7--7--2--2--2--2--5--5--5--5---|
A|--5--5--5--5--5--5--5--5--2--2--2--2--3--3--3--3---|
E|--3--3--3--3--------------0--0--0--0---------------|
                                                       Play through these two three times. 
e|---------------------------------------------------|
B|---------------------------------------------------|
G|--------------7--7--7--7--5--5--5--5--5--5--5--5---| 
D|--5--5--5--5--7--7--7--7--5--5--5--5--5--5--5--5---|
A|--5--5--5--5--5--5--5--5--3--3--3--3--3--3--3--3---|
E|--3--3--3--3---------------------------------------|
The last time through, instead of a C bar chord, play an E bar instead.

After that, the song drops off the guitar for a bit, coming back at 3:01.
The second last chord was hard to hear, but I think I got it.

e|-----------------------------------------------|
B|-----------------------------------------------|
G|--------------5--------------------4-----------|
D|--2-----5-----5--------2-----5-----5---------2-|
A|--2-----5-----3--------2-----5-----3---------2-|
E|--0-----3--------------0-----3---------------0-|


************************************

| /   slide up
| \   slide down
| h   hammer-on
| p   pull-off
| ~   vibrato
| +   harmonic
| x   Mute note
| b   Bend
| pb  Pre-bend
| br  Bend release
| pbr Pre-bend release
| brb Bend release bend

************************************

            
            
Suggest correction
Creating personal tab
Creating personal tab
You can edit any tab online and save it as your Personal.

You can edit, replace or remove any tab part or add personal notes – all changes will be seen only by you.

Personal tabs can be accessed anytime from any device, even offline.
Learn more »
comments
print report bad tab
guest
You may want to rate the tab now too:
select rating
Wanna post a correction for this tab? Suggest correction