Oops, an error
Loading. Please wait.

Picturing Love tab

1,453 views 18 this week
1 commentread comment
1 2 3 4 5
2 more votes to show rating
add to favorites
×
Save as Personal and add changes to this tab that will be seen only by you. Learn more ›
×
You can save this tab as Personal to edit and correct it or add notes. All changes will be seen only by you. Learn more »
launch autoscroll
font size
0
reset
how to read this tab
guitar tuner
edit
Autoscroll
slow
fast
+/-
esc
set tempo
stop
Author
Difficulty
[Intro]
(Piano Riff)
e|---------------------------------------------------------------------------|
B|---------------------------------------------------------------------------|
G|---------------------------------------------------------------------------|
D|---------------------------------------------------------------------------|
A|------------------3------------------3-------------------------------------|
E|-5-5-5-3-5-5-5-3-5--5-5-5-3-5-5-5-3-5--5-5-5-5-4-5-4-5---------------------|

e|---------------------------------------------------------------------------|
B|---------------------------------------------------------------------------|
G|---------------------------------------------------------------------------|
D|---------------------------------------------------------------------------|
A|------------------3------------------3-------------------------------------|
E|-5-5-5-3-5-5-5-3-5--5-5-5-3-5-5-5-3-5--5-5-5-5-4-5-4-5---------------------|


[Verse]
"Picture yourself..."
(Piano Riff)
e|---------------------------------------------------------------------------|
B|---------------------------------------------------------------------------|
G|---------------------------------------------------------------------------|
D|---------------------------------------------------------------------------|
A|------------------3------------------3-------------------------------------|
E|-5-5-5-3-5-5-5-3-5--5-5-5-3-5-5-5-3-5--5-5-5-5-4-5-4-5---------------------|

"Pictures mean nothing..."
(Distorted Guitar)*Listen to song for timing*
e|---------------------------------------------------------------------------|
B|-10~~~---------10--10--10~-------------------------------------------------|
G|---------------------------------------------------------------------------|
D|---------------------------------------------------------------------------|
A|---------------------------------------------------------------------------|
E|---------------------------------------------------------------------------|

[Pre-Chorus]
"You..."
e|-x----x----x----x----------------------------------------------------------|
B|-x----x----x----x----------------------------------------------------------|
G|-x----x----x----x----------------------------------------------------------|
D|-x----x----x----x----------------------------------------------------------|
A|-x----x----x----x----------------------------------------------------------|
E|-x----x----x----x----------------------------------------------------------|

e|-x----x----x----x----------------------------------------------------------|
B|-x----x----x----x----------------------------------------------------------|
G|-x----x----x----x----------------------------------------------------------|
D|-x----x----x----x----------------------------------------------------------|
A|-x----x----x----x----------------------------------------------------------|
E|-x----x----x----x----------------------------------------------------------|

e|-x----x-----------------------------------------------------------------------|
B|-x----x-----------------------------------------------------------------------|
G|-x----x-----------------------------------------------------------------------|
D|-x----x-----------------------------------------------------------------------|
A|-x----x-----------------------------------------------------------------------|
E|-x----x-----------------------------------------------------------------------|

[Chorus]
"Picturing Love"
{Distorted Guitar)
e|---------------------------------------------------------------------------|
B|---------------------------------------------------------------------------|
G|---------------------------------------------------------------------------|
D|---------------------------------------------------------------------------|
A|------------------3------------------3-------------------------------------|
E|-5-5-5-3-5-5-5-3-5--5-5-5-3-5-5-5-3-5--5-5-5-5-4-5-4-5---------------------|

e|---------------------------------------------------------------------------|
B|---------------------------------------------------------------------------|
G|---------------------------------------------------------------------------|
D|---------------------------------------------------------------------------|
A|------------------3------------------3-------------------------------------|
E|-5-5-5-3-5-5-5-3-5--5-5-5-3-5-5-5-3-5--5-5-5-5-4-5-4-5---------------------|

(Piano Riff Continues Throughout The Song)

[Verse 2] 4x 
"When I..."
e|---------------------------------------------------------------------------|
B|-10~10~10~10~10~-10--10-10-9-10--------------------------------------------|
G|---------------------------------------------------------------------------|
D|---------------------------------------------------------------------------|
A|---------------------------------------------------------------------------|
E|---------------------------------------------------------------------------|

[Chorus]
"Picturing Love"
{Distorted Guitar)
e|---------------------------------------------------------------------------|
B|---------------------------------------------------------------------------|
G|---------------------------------------------------------------------------|
D|---------------------------------------------------------------------------|
A|------------------3------------------3-------------------------------------|
E|-5-5-5-3-5-5-5-3-5--5-5-5-3-5-5-5-3-5--5-5-5-5-4-5-4-5---------------------|

e|---------------------------------------------------------------------------|
B|---------------------------------------------------------------------------|
G|---------------------------------------------------------------------------|
D|---------------------------------------------------------------------------|
A|------------------3------------------3-------------------------------------|
E|-5-5-5-3-5-5-5-3-5--5-5-5-3-5-5-5-3-5--5-5-5-5-4-5-4-5---------------------|


[Post Chorus]
"In the screen I see a woman..."
e|-------------------------------------------|
B|-------------------------------------------|
G|-------------------------------------------|
D|-------------------------------------------|
A|-------------------------------------------|
E|-5-------3-------5--------8----------------|

e|-------------------------------------------|
B|-------------------------------------------|
G|-------------------------------------------|
D|-------------------------------------------|
A|-------------------------------------------|
E|-5-------3-------5--------5~~~~~~~~~~~~~~~~|


[Chorus]
"Picturing Love"
{Distorted Guitar)
e|---------------------------------------------------------------------------|
B|---------------------------------------------------------------------------|
G|---------------------------------------------------------------------------|
D|---------------------------------------------------------------------------|
A|------------------3------------------3-------------------------------------|
E|-5-5-5-3-5-5-5-3-5--5-5-5-3-5-5-5-3-5--5-5-5-5-4-5-4-5---------------------|

e|---------------------------------------------------------------------------|
B|---------------------------------------------------------------------------|
G|---------------------------------------------------------------------------|
D|---------------------------------------------------------------------------|
A|------------------3------------------3-------------------------------------|
E|-5-5-5-3-5-5-5-3-5--5-5-5-3-5-5-5-3-5--5-5-5-5-4-5-4-5---------------------|

e|---------------------------------------------------------------------------|
B|---------------------------------------------------------------------------|
G|---------------------------------------------------------------------------|
D|---------------------------------------------------------------------------|
A|------------------3------------------3-------------------------------------|
E|-5-5-5-3-5-5-5-3-5--5-5-5-3-5-5-5-3-5--5-5-5-5-4-5-4-5---------------------|

(You can improvise off of this riff)
e|----------------------------------------------------------------------------------|
B|----------------------------------------------------------------------------------|
G|----------------------------------------------------------------------------------|
D|----------------------------------------------------------------------------------|
A|---------------------------15---------------------------15------------------------|
E|/17-17-17-17-17-17-17-15-17---17-17-17-15-17-17-17-15-17--17-17-17-17-16-17-16-17-|

e|----------------------------------------------------------------------------------|
B|----------------------------------------------------------------------------------|
G|----------------------------------------------------------------------------------|
D|----------------------------------------------------------------------------------|
A|---------------------------15---------------------------15------------------------|
E|-17-17-17-17-17-17-17-15-17---17-17-17-15-17-17-17-15-17--17-17-17-17-16-17-16-17-|

[Outro]

e|---------------------------------------------------------------------------|
B|---------------------------------------------------------------------------|
G|---------------------------------------------------------------------------|
D|---------------------------------------------------------------------------|
A|---------------------------------------------------------------------------|
E|-17/5----------------------------------------------------------------------|




************************************


| /   Slide up
| \   Slide down
| ~   Vibrato


************************************
Suggest correction
Creating personal tab
Creating personal tab
You can edit any tab online and save it as your Personal.

You can edit, replace or remove any tab part or add personal notes – all changes will be seen only by you.

Personal tabs can be accessed anytime from any device, even offline.
Learn more »
Give kudos to tab author, rate the tab!
1 2 3 4 5
comments
print report bad tab
1 comment total.
+1 reply
rowanhill00 20 Mar 28, 2017 02:38 PM

Great tab for a great song. Well done my man.

guest
You may want to rate the tab now too:
select rating
Wanna post a correction for this tab? Suggest correction