Oops, an error
Loading. Please wait.

Summer Dress chords

version 2
version 2

Whole song

1,036 views 30 this week
no commentswrite comment
1 2 3 4 5
x 3
add to favorites
×
Save as Personal and add changes to this tab that will be seen only by you. Learn more ›
×
You can save this tab as Personal to edit and correct it or add notes. All changes will be seen only by you. Learn more »
launch autoscroll
font size
0
reset
transpose
0
reset
simplify chords
display chords
guitar tuner
edit
Autoscroll
slow
fast
+/-
esc
set tempo
stop
Author
Strumming
There is no strumming pattern for this song yet. and get +5 IQ
Chords used:

     E A D G B e
E5   0 2 2 x x x
G5   3 5 5 x x x
C5   x 3 5 5 x x
A5   5 7 7 x x x
C5   x 3 5 x x x  (used in chorus)
A5   5 7 x x x x  (used in chorus)
E5   0 2 x x x x  (used in chorus) 
E5/B x 2 2 x x x

[Intro]

   E5    G5    E5 G5 E5 G5 E5              E5    G5    E5 G5 E5 G5 E5
e|---------------------------------------------------------------------------|
B|---------------------------------------------------------------------------|
G|---------------------------------------------------------------------------|
D|-2--2--5--5--2--5--2--5--2---2--2--2-----2--2--5--5--2--5--2--5--2---------| X2
A|-2--2--5--5--2--5--2--5--2---2--2--2-----2--2--5--5--2--5--2--5--2---------|
E|-0--0--3--3--0--3--0--3--0---------------0--0--3--3--0--3--0--3--0---------|

HOO


[Verse]

N.C.
I ain't no man, go back to the king
N.C.
Tied up my suitcase, gonna see what trouble brings
C5
All the sheep are black, said I ain't convinced
N.C.                                                
Took a trip to the smoke, and she hasn't been back since. HOO


[Instrumental]

   E5    G5    E5 G5 E5 G5 E5              E5    G5    E5 G5 E5 G5 E5
e|---------------------------------------------------------------------------|
B|---------------------------------------------------------------------------|
G|---------------------------------------------------------------------------|
D|-2--2--5--5--2--5--2--5--2---2--2--2-----2--2--5--5--2--5--2--5--2---------| X2
A|-2--2--5--5--2--5--2--5--2---2--2--2-----2--2--5--5--2--5--2--5--2---------|
E|-0--0--3--3--0--3--0--3--0---------------0--0--3--3--0--3--0--3--0---------|


[Verse]

N.C.
Barely dressed, looking for love along the plateau
N.C.
The girls are young, a little dumb and they're going it alone
C5
My boys it's all the same tonight, you've got to make a choice
N.C.
No need to serenade her now, don't waste that pretty voice


[Chorus]

C5                         A5    
Yea but this is life we're living
                        E5 
Life ain't always 'bout forgiving
                                C5 
She's my lady in a summer dress
A5
This is life we're living
                               
Life ain't always bout forgiving


[Instrumental]

   E5    G5    E5 G5 E5 G5 E5              E5    G5    E5 G5 E5 G5 E5
e|---------------------------------------------------------------------------|
B|---------------------------------------------------------------------------|
G|---------------------------------------------------------------------------|
D|-2--2--5--5--2--5--2--5--2---2--2--2-----2--2--5--5--2--5--2--5--2---------| X2
A|-2--2--5--5--2--5--2--5--2---2--2--2-----2--2--5--5--2--5--2--5--2---------|
E|-0--0--3--3--0--3--0--3--0---------------0--0--3--3--0--3--0--3--0---------|


[Verse]

E5  
Up and to the station, I took her on back home

I hadn't seen the bed in months but, I hadn't been alone
C5                                   E5  N.C.
I got pulled over, whiskey at my feet

Bumped it to the hospital, blood came pouring out of me. HOO


[Chorus]

C5                         A5    
Yea but this is life we're living
                        E5 
Life ain't always 'bout forgiving
                                C5 
She's my lady in a summer dress
                           A5
The last thing that you'll see


[Bridge]

N.C.
She come looking for me
N.C.
She come looking for me
N.C.                              
She gonna find me on the floor
                          G5
She'll find me on the floor


[Chorus]

            A5          
And this is life we're living
C5                      G5
Life ain't always 'bout forgiving

E5       G5         C5
She's my lady in a summer dress

She'll find me on the floor
E5       G5         C5
She's my lady in a summer dress

She'll find me on the floor
E5       G5         C5
She's my lady in a summer dress

She'll find me on the floor


[Outro]

E5 G5 E5 G5 E5 G5





            
            
Suggest correction
Creating personal tab
Creating personal tab
You can edit any tab online and save it as your Personal.

You can edit, replace or remove any tab part or add personal notes – all changes will be seen only by you.

Personal tabs can be accessed anytime from any device, even offline.
Learn more »
Give kudos to tab author, rate the tab!
1 2 3 4 5
comments
print report bad tab
guest
You may want to rate the tab now too:
select rating
Wanna post a correction for this tab? Suggest correction