Oops, an error
Loading. Please wait.

Alienados Para Siempre Tab

by Jumbo
21 views 1 this week
no commentswrite comment
1 2 3 4 5
3 more votes to show rating
add to favorites
×
Save as Personal and add changes to this tab that will be seen only by you. Learn more ›
×
You can save this tab as Personal to edit and correct it or add notes. All changes will be seen only by you. Learn more »
save as personal
new!
launch autoscroll
font size
0
reset
how to read this tab
guitar tuner
Autoscroll
slow
fast
+/-
esc
set tempo
stop
Una de mis favoritas de este grupo regio.

Intro: (echo)
se repite durante toda la cancion

e---4-4-4-4-4-4-4-4---5-5-5-5-
B-----------------------------
G-----------------------------


Verso(claro)
       A              A           E              E
e--4-4-4-2-2-2---4-4-4-2-2-2------------------------------
B--2-2-2-2-2-2---2-2-2-2-2-2------------------------------
G--2-2-2-2-2-2---2-2-2-2-2-2----1-1-1---------1-1-1-------
D--2-2-2-2-2-2---2-2-2-2-2-2----2-2-2--1------2-2-2--1----
A-------------------------------2-2-2----2----2-2-2----2--
E------------------------------------------0------------0-

Puente (leve distorcion)
    C          B        C     G#
e---------------------------------||-------------------------
B---------------------------------||-------------------------
G--5-5-5-5--4-4-4-4--5-5-5-5------||-------------------------
D--5-5-5-5--4-4-4-4--5-5-5-5--6~--||-------------------------
A--3-3-3-3--2-2-2-2--3-3-3-3--6~--||--------6---------6------
E-----------------------------4~--||----0-4---0-4-0-4---4-0-- 


Coro (con distorcion)
       A              A               E              E
e----5-5-5----------5-5-5-------------------------------------
B----5-5-5----------5-5-5-------------------------------------
G----6-6-6----------6-6-6-----------1-1-1---------1-1-1-------
D----7-7-7--6-------7-7-7--6--------2-2-2--1------2-2-2--1----
A----7-7-7----7-----7-7-7----7------2-2-2----2----2-2-2----2--
E----5-5-5------5---5-5-5------5---------------0-------------0

Final:

(con distorcion)
       A              
e----5-5-5------------
B----5-5-5------------
G----6-6-6--------14~-
D----7-7-7--6-----14~-
A----7-7-7----7---12~-
E----5-5-5------------
Suggest correction
Give kudos to tab author, rate the tab!
1 2 3 4 5
comments
print report bad tab
guest
Wanna post a correction for this tab? Suggest correction