Oops, an error
Loading. Please wait.

Dilata Tab

by Jumbo
66 views 1 this week
no commentswrite comment
1 2 3 4 5
3 more votes to show rating
add to favorites
×
Save as Personal and add changes to this tab that will be seen only by you. Learn more ›
×
You can save this tab as Personal to edit and correct it or add notes. All changes will be seen only by you. Learn more »
save as personal
new!
launch autoscroll
font size
0
reset
how to read this tab
guitar tuner
Autoscroll
slow
fast
+/-
esc
set tempo
stop
Intro:
                                                                                                                            
                                                                                    uuuuuu!!!
   E    F         A             D              x4
e-------------------------------------------------
B-------------------------------------------------
G------------------------7-7-7-7-7-7-7-7----------
D-14/3-3-3-3---7-7-7-7---7-7-7-7-7-7-7-7----------
A-14/3-3-3-3---7-7-7-7---5-5-5-5-5-5-5-5----------
E-12/1-1-1-1---5-5-5-5----------------------------
                              ^
                              |
                >-------------^
                | 
                |
sobre el esto---^  uno se toca este riff.

D--2h3p2--0----0-----
A-----------3----


soy electrico dilata
todo lo veo amarillo

G--9b11b9b11b9-------5--
D----------------7------


la tarde lenta, se pasa
no quiero ser olvidado asi

G--9b11b9b11b9b11b9b11b9----


la pasarela angosta y llena la sala...(con riff)
                                 
        F         A              D              x4
e-------------------------------------------------
B-------------------------------------------------
G------------------------7-7-7-7-7-7-7-7----------
D----3-3-3-3---7-7-7-7---7-7-7-7-7-7-7-7----------
A----3-3-3-3---7-7-7-7---5-5-5-5-5-5-5-5----------
E----1-1-1-1---5-5-5-5----------------------------


luce cuando sale...
      A#         F              C       x3        D
e----------------------------------------||--------------
B----------------------------------------||--------------
G---------------------3/5-5-5-5-5-5-5-5--||--7-7-7-7-7---
D--8-8-8-8---3-3-3-3--3/5-5-5-5-5-5-5-5--||--7-7-7-7-7---
A--8-8-8-8---3-3-3-3--1/3-3-3-3-3-3-3-3--||--5-5-5-5-5---
E--6-6-6-6---1-1-1-1---------------------||--------------


uuuuuu!!!(con riff)
        F         A             D               x4
e-------------------------------------------------
B-------------------------------------------------
G---------------------------7-7-7-7-7-7-7-7-------
D----14/3-3-3-3---7-7-7-7---7-7-7-7-7-7-7-7-------
A----14/3-3-3-3---7-7-7-7---5-5-5-5-5-5-5-5-------
E----12/1-1-1-1---5-5-5-5-------------------------


sueño electrico, nos mata
todo se siente tan frio

G--9b11b9b11b9-------5--
D----------------7------


la noche corre lenta y abraza
no quiero que me lastime

G--9b11b9b11b9b11b9b11b9----


la mayoria envuelta en ropa de gala(con riff)
                                    
        F         A             D    x4
e-------------------------------------------------
B-------------------------------------------------
G------------------------7-7-7-7-7-7-7-7----------
D----3-3-3-3---7-7-7-7---7-7-7-7-7-7-7-7----------
A----3-3-3-3---7-7-7-7---5-5-5-5-5-5-5-5----------
E----1-1-1-1---5-5-5-5----------------------------


luce cuando sale...
                                 
      A#         F               C            x3 
e---------------------------------------------
B---------------------------------------------
G----------------------3/5-5-5-5-5-5-5-5------
D--8-8-8-8---3-3-3-3---3/5-5-5-5-5-5-5-5------
A--8-8-8-8---3-3-3-3---1/3-3-3-3-3-3-3-3------
E--6-6-6-6---1-1-1-1--------------------------

(parte sobre el solo)no estoy muy seguro de esta parte

       D         A         A#        F
e-----------------------------------------------
B-----------------------------------------------
G---7-7-7-7-------------------------------------
D---7-7-7-7---7-7-7-7---8-8-8-8---3-3-3-3-------
A---5-5-5-5---7-7-7-7---8-8-8-8---3-3-3-3-------
E-------------5-5-5-5---6-6-6-6---1-1-1-1-------

       D         A         A#          C
e-----------------------------------------------
B-----------------------------------------------
G---7-7-7-7-------------------------------------
D---7-7-7-7---7-7-7-7---8-8-8-8---10-10-10-10---
A---5-5-5-5---7-7-7-7---8-8-8-8---10-10-10-10---
E-------------5-5-5-5---6-6-6-6---8--8--8--8----


luce cuando sale

      A         F              C                x8
e----------------------------------------------
B----------------------------------------------
G---------------------3/5-5-5-5-5-5-5-5--------
D--8-8-8-8---3-3-3-3--3/5-5-5-5-5-5-5-5--------
A--8-8-8-8---3-3-3-3--1/3-3-3-3-3-3-3-3--------
E--6-6-6-6---1-1-1-1---------------------------
Suggest correction
Give kudos to tab author, rate the tab!
1 2 3 4 5
comments
print report bad tab
guest
Wanna post a correction for this tab? Suggest correction