Oops, an error
Loading. Please wait.

En Repeticion Tab

version 2
version 2

Whole song

by Jumbo
27 views 1 this week
no commentswrite comment
1 2 3 4 5
3 more votes to show rating
add to favorites
×
Save as Personal and add changes to this tab that will be seen only by you. Learn more ›
×
You can save this tab as Personal to edit and correct it or add notes. All changes will be seen only by you. Learn more »
save as personal
new!
launch autoscroll
font size
0
reset
how to read this tab
guitar tuner
Autoscroll
slow
fast
+/-
esc
set tempo
stop
esta es la primera parte.
                                    x3
e----------------------------------
b---3-3---3-3----------------------
g----------------------------------
D--5-4-0-0-0-----------------------
A----------------------------------
E----------------------------------

siempre caminas de tras,

sigues la triste confusion,

siempre te dejas llevar,

en repeticion 

e----------------------------------
b----------------------------------
g-------6s-7s-6-------6s-7s-6------
D--2-2--6s-7s-6--2-2--6s-7s-6------
A--2-2--4s-5s-4--2-2--4s-5s-4------
E--0-0--0--0--0--0-0--0--0--0------
otra vez.

                                   x4
e----------------------------------
b---3-3---3-3----------------------
g----------------------------------
D--5-4-0-0-0-----------------------
A----------------------------------
E----------------------------------

la luna es black & withe,

el sol en technicolor,

debajo todo es lo mismo,

y aqui estamos

e----------------------------------
b----------------------------------
g-------6s-7s-6-------6s-7s-4------
D--2-2--6s-7s-6--2-2--6s-7s-4------
A--2-2--4s-5s-4--2-2--4s-5s-4------
E--0-0--0--0--0--0-0--0--0--0------

otra ves en repeticion!!

CORO                               x4
e--3-3-----------------------------
b--2-2-----------------------------
g----------------5--5-5------------
D---------5--5-5-5--5-5------------
A---------5--5-5-3--3-3------------
E-----2-3-3--3-3-0--0-0------------

kemala television,

el mundo entero esta equivocado entiendelo.

                                   x4
e----------------------------------
b---3-3---3-3----------------------
g----------------------------------
D--5-4-0-0-0-----------------------
A----------------------------------
E----------------------------------

todos se quieren subir,

aunque manejen despacio,

es solo el mismo juego,

e----------------------------------
b----------------------------------
g-------6s-7s-6-------6s-7s-4------
D--2-2--6s-7s-6--2-2--6s-7s-4------
A--2-2--4s-5s-4--2-2--4s-5s-4------
E--0-0--0--0--0--0-0--0--0--0------

nuevos monos ,

a color,

en repeticion!!!

CORO                               x4
e--3-3-----------------------------
b--2-2-----------------------------
g----------------5--5-5------------
D---------5--5-5-5--5-5------------
A---------5--5-5-3--3-3------------
E-----2-3-3--3-3-0--0-0------------

kemala televison,

el mundo entero esta equivocado entiendelo.

e--------------------------------------------------------------
b--------------------------------------------------------------
g--------------------------------------------5-5-5-5-5-5-5-5-5-
D--5-5-5-5-5-5-5-5-5-5--3-3-3-3-3-3-3-3-3-3--5-5-5-5-5-5-5-5-5-
A--5-5-5-5-5-5-5-5-5-5--3-3-3-3-3-3-3-3-3-3--3-3-3-3-3-3-3-3-3-
E--3-3-3-3-3-3-3-3-3-3--1-1-1-1-1-1-1-1-1-1--------------------

todo se cae,

y aparece,

e------------3-3-3-3-3-------------
b--2-2-2-2-2-2-2-2-2-2-------------
g--2-2-2-2-2-2-2-2-2-2-------------
D--2-2-2-2-2-2-2-2-2-2-------------
A----------------------------------
E----------------------------------

y sigues sin entender.

             x3                     
e---------------2------------------
b---3-3---3-3---3------------------
g---------------2------------------
D--5-4-0-0-0-----------------------
A----------------------------------
E----------------------------------

vas avanzando despacio,

debajo todo es lo mismo en repticion.

en repeticion!!!


CORO                                 
e--3-3-----------------------------
b--2-2-----------------------------
g----------------5--5-5------------
D---------5--5-5-5--5-5------------
A---------5--5-5-3--3-3------------
E-----2-3-3--3-3-0--0-0------------

kemala television,

el mundo entero esta equivocado entiendelo.

ya se vuelve a repetir el coro durante el resto de la cancion.


DuDas y CoMents a: God_Goliath@
By:Fernando Grajales Todos los Derechos Reservados...etc
Suggest correction
Give kudos to tab author, rate the tab!
1 2 3 4 5
comments
print report bad tab
guest
Wanna post a correction for this tab? Suggest correction