Oops, an error
Loading. Please wait.

Fotografia Tab

version 1
version 1

Whole song

by Jumbo
146 views 1 this week
no commentswrite comment
1 2 3 4 5
3 more votes to show rating
add to favorites
launch autoscroll
font size
0
reset
how to read this tab
guitar tuner
×
Best way to learn
"Fotografia"
Autoscroll
slow
fast
+/-
esc
set tempo
stop
FOTOGRAFIA

standar:
6=E  3=G
5=A  2=B
4=D  1=E


      flauta                     riff 1: Mi vida entre fotografias .....
e:--------9---------------------||------------------------------------||
B:---11-------------------------||------------------------------------||
G:------------11---9~~~feedback-||------------------------------------||
D:------------------------------||----6-----7-----9----6-----7------9-||x6
A:------------------------------||----7-----7----------7-----7--------||
E:------------------------------||------------------------------------||

  guitarra 1  wha
  y cuando somos fuertes ........
   C#m         B    C#m         B    C#m         B    A     B
e:----------------|----------------|----------------|----------7-----7-|
B:-9-9-------7--|-9--9-------7-|-9--9-------7-|-5----7--7--7--7-|
G:-9---9-----8--|-9----9-----8-|-9----9-----8-|-6----8-----8----|
D:-11----11--9--|-11-----11--9-|-11-----11--9-|-7----9-----9----|
A:----------------|----------------|----------------|------------------|
E:----------------|----------------|----------------|------------------|


  Asi.......                  Asi...........
 dist  E5                      A5
e:-------------------------------------------------|
B:-------------------------------------------------|
G:-----9--9-9--9-9--9-9----------------------------|
D:-----9--9-9--9-9--9-9--------(7)--7-7--7-7--7-7--|x2
A:-----7--7-7--7-7--7-O---------7---7-7--7-7--7-7--|
E:-----0--------------0---------5---5-5--5-5--5-0--|

guitarra 1 feedback

el trafico de la ciudad es la version........
|e:----------|
|B:----------|
|G:----9~~~--|
|D:----9~~~--|
|A:----7~~~--|
|E:----0~~~--|
|
|guitarra 2 acustica  riff 2:
|      E                  A
|e:---------------------------------------|
|B:----9--9-9--9-9--9-----5--5-5--5-5--5--|
|G:----9--9-9--9-9--9-----6--6-6--6-6--6--|x10
|D:----9--9-9--9-9--9-----7--7-7--7-7--7--|
|A:----7--7-7--7-7--7-----7--7-7--7-7--7--|
|E:---------------------------------------|

guitarra 1  wha
   y cuando somos fuertes............
   C#m        B     C#m       B    C#m       B     A   B
e:---------------|---------------|--------------|---------7-----7-|
B:-9-9------7--|-9-9-------7-|-9-9------7-|--5--7--7--7--7-|
G:-9---9----8--|-9---9-----8-|-9---9----8-|--6--8-----8----|
D:-11----11-9--|-11----11--9-|-11----11-9-|--7--9-----9----|
A:---------------|---------------|--------------|-----------------|
E:---------------|---------------|--------------|-----------------|

guitarra 1   dist

 Asi.......                  Asi...........
       E5                      A5
e:-------------------------------------------------|
B:-------------------------------------------------|
G:-----9--9-9--9-9--9-9----------------------------|
D:-----9--9-9--9-9--9-9--------(7)--7-7--7-7--7-7--|x4
A:-----7--7-7--7-7--7-O---------7---7-7--7-7--7-7--|
E:-----0--------------0---------5---5-5--5-5--5-0--|


guitarra 1 dist/wha
   E                      A
e:----------------------|----------------------|
B:----------------------|----------------------|
G:-9--9-9/11--11/13--13-|-9--9-9/11--11/13--13-|
D:----------------------|----------------------|
A:-7--7-7/9----9/11--11-|-7--7-7/9----9/11--11-|
E:----------------------|----------------------|


   E                   A
e:-------------------------------------|
b:-------------------------------------|
G:-14--14-1413--13-136--6-64--4-4~~~|
D:-------------------------------------|
A:-12--12-1211--11-114--4-42--2-2~~~|
E:-------------------------------------|


  E                         A                       E           A
e:----------------------|-------------------------------------------|
B:----------------------|----------------12-14---16---18-18-18///~~~|
G:-9--9-9/11--11/13--13-|-14---14-14-14-----------------------------|
D:----------------------|-----------------9-11---13---14-14-14///~~~|
A:-7--7-7/9----9/11--11-|-12---12-12-12-----------------------------|
E:----------------------|-------------------------------------------|


guitarra 2 acustica  riff 2:
      E                  A
e:---------------------------------------|
B:----9--9-9--9-9--9-----5--5-5--5-5--5--|
G:----9--9-9--9-9--9-----6--6-6--6-6--6--|x5
D:----9--9-9--9-9--9-----7--7-7--7-7--7--|
A:----7--7-7--7-7--7-----7--7-7--7-7--7--|
E:---------------------------------------|


guitarra 1  wha
   y cuando somos fuertes............
   C#m        B     C#m         B    C#m        B    A  B///  ////
e:----------------|----------------|---------------|--------7-----7---|
B:-9-9-------7--|-9--9-------7-|-9--9------7-|-5--7--7--7--7---|
G:-9---9-----8--|-9----9-----8-|-9----9----8-|-6--8-----8------|
D:-11----11--9--|-11-----11--9-|-11-----11-9-|-7--9-----9------|
A:----------------|----------------|---------------|------------------|
E:----------------|----------------|---------------|------------------|

      /////   ////
e:--------7-----7---||
B:-----7--7--7--7---||
G:-----8-----8------||
D:-----9-----9------||
A:------------------||
E:------------------||


guitarra 1   dist

 Asi.......                  Asi...........
       E5                      A5
e:-------------------------------------------------|
B:-------------------------------------------------|
G:-----9--9-9--9-9--9-9----------------------------|
D:-----9--9-9--9-9--9-9--------(7)--7-7--7-7--7-7--|x4
A:-----7--7-7--7-7--7-O---------7---7-7--7-7--7-7--|
E:-----0--------------0---------5---5-5--5-5--5-0--|


guitarra 1 dist/wha
     E                         A
e:-------------------------|-------------------------|
B:-------------------------|-------------------------|
G:---9--9-9/11--11/13--13--|---9--9-9/11--11/13--13--|
D:-------------------------|-------------------------|
A:---7--7-7/9----9/11--11--|---7--7-7/9----9/11--11--|
E:-------------------------|-------------------------|


   E                     A

E:--------------------------------------------|
B:--------------------------------------------|
G:--14---14-1413---13-136--6-64--4-4~~~----|
D:--------------------------------------------|
A:--12---12-1211---11-114--4-42--2-2~~~----|
E:--------------------------------------------|


  E                         A                         E          A
e:-----------------------|------------------------------------------|
B:-----------------------|---------------12--14--16---18-18-18///~~~|
G:-9--9-9/11--11/13--13--|-14--14-14-14-----------------------------|
D:-----------------------|----------------9--11--13---14-14-14///~~~|
A:-7--7-7/9----9/11--11--|-12--12-12-12-----------------------------|
E:-----------------------|------------------------------------------|


guitarra 2 acustica  rif 2:
      E                  A
e:---------------------------------------|
B:----9--9-9--9-9--9-----5--5-5--5-5--5--|
G:----9--9-9--9-9--9-----6--6-6--6-6--6--|x5
D:----9--9-9--9-9--9-----7--7-7--7-7--7--|
A:----7--7-7--7-7--7-----7--7-7--7-7--7--|
E:---------------------------------------|

    Mi dia entre fotografias se guardan y se olvidan
                       E
                 e:----------||
                 B:----9-----||
                 G:----9-----||
                 D:----9-----||
                 A:----7-----||
                 E:----0-----||


          Fotografia

GUITARRA 1 (ACUSTICA) afinacion standar

Riff 1:
  Mi vida entre fotografias se guardan y se olvidan
  por que dicen la verdad dicen la verdad
  alguna ves oí decir que la vida una pelicula

  El curso de los dias lleva la melancolia
  como las olas del mar como las olas del mar
  algunos dias si testigan y atormentan tu armonia
  pero con la calma se van.


coro:
C#m        B
  y cuando somos fuertes
C#m       B               C#m
  nos debora el temor de seguir
           B               A    B         E   A    E    A
  cuando hoy soy mas debil           asii      asii

riff 2:
  E                           A
  El trafico de la ciudad es la version moderna
            E                    A          E       A
  de las estampidas de caracter animal de caracter animal
      E                       A
  el navegar las avenidas es como que el horrible dia
        E      A
  en que todo sale mal

   E                            A
  El tiempo que contamos y que sobrevaloramos
       E          A                    E          A
  de alguna manera biene y va siempre bien y luego van
    E                          A
  a veces por la tarde cuando salgo a la calle
         E     A
  me pregunto donde estan.


 coro:
C#m         B           C#m          B             C#m
  Y cuando somos fuertes     nos debora el temor de seguir
        B              A B    E A    E A    E  A     E A E A E A E A E A
cuando hoy soy mas debil  asiii  asiiii  asiiii  asiiiii


riff 2:
     E                        A
  El curso de los dias lleva la melancolia
        E     A               E    A
  como las olas del mar como las olas del mar
     E                         A
  algunos dias si atestigan y atormentan tu armonia
   E                 A
  pero con la calma se van


 coro:

C#m         B           C#m          B               C#m
  Y cuando somos fuertes     nos debora el temor de seguir
       B               A B   E  A    E   A    E  A    E A E A E A E A E A
cuando hoy soy mas debil  asiii  asiiii  asiiii  asiiiii

 E A  E A  E A  E A  E
                      Mi dia entre fotografias se guardan y se olvidan.


eicap@
Suggest correction
Give kudos to tab author, rate the tab!
1 2 3 4 5
comments
print report bad tab
guest
You may want to rate the tab now too:
select rating
Wanna post a correction for this tab? Suggest correction