Oops, an error
Loading. Please wait.

Fotografia Tab

version 2
version 2

Whole song

by Jumbo
65 views 1 this week
no commentswrite comment
1 2 3 4 5
3 more votes to show rating
add to favorites
×
Save as Personal and add changes to this tab that will be seen only by you. Learn more ›
×
You can save this tab as Personal to edit and correct it or add notes. All changes will be seen only by you. Learn more »
save as personal
new!
launch autoscroll
font size
0
reset
how to read this tab
guitar tuner
Autoscroll
slow
fast
+/-
esc
set tempo
stop
Tono Guitarra 1 : E A D G B E  Tono Guitarra 2 :  E A D G B E       

Intro    Verso        Pre-coro
Guitarra 1
**********
|--------|-------|----|----------|---------|--|--|-----|       
|--------|-------|----|----------|---------|--|--|-----|          
|14171210|°------|---°|°---------|--------°|--|--|-----|
|--------|-------|----|----------|---------|--|--|-----|
|--------|°------|---°|°---------|--------°|--|--|-----|
|--------|-------|----|----------|---------|--|--|-----|
|Guitarra 2 Rasgueado..................................                               
|--------|--0----|0---|--4-4-----|4--------|5-|7-|7----|
|--------|--0----|2---|--5---4---|4--------|5-|7-|7----|
|--------|°-1----|2--°|°-6-----6-|4-------°|6-|8-|8----|
|--------|--2----|2---|--6-------|6--------|7-|9-|9----|
|--------|°-2----|0--°|°-4-------|6-------°|7-|9-|9----|
|--------|--0----|----|----------|4--------|5-|7-|7----|
            Mi vida...   Y cuando......     Cuando soy mas debil... 


********Es la parte de la entrada que toca el teclado                                       Rasgueado..................
Coro                                                                                        Inicia el verso2
|----------------------|----------------------|----------------------|----------------------|-------------|----|--|----|
|----------------------|----------------------|----------------------|----------------------|-------------|----|--|----|
|9-9-9-9-9-9-9-9-9-9-9-|----------------------|9-9-9-9-9-9-9-9-9-9-9-|----------------------|-------------|----|--|----|
|9-9-9-9-9-9-9-9-9-9-9-|7-7-7-7-7-7-7-7-7-7-7-|9-9-9-9-9-9-9-9-9-9-9-|7-7-7-7-7-7-7-7-7-7-7-|2------------|----|--|----|
|7-7-7-7-7-7-7-7-7-7-7-|7-7-7-7-7-7-7-7-7-7-7-|7-7-7-7-7-7-7-7-7-7-7-|7-7-7-7-7-7-7-7-7-7-7-|2------------|----|--|----|
|0-0-0-0-0-0-0-0-0-0-0-|5-5-5-5-5-5-5-5-5-5-5-|0-0-0-0-0-0-0-0-0-0-0-|5-5-5-5-5-5-5-5-5-5-5-|0------------|----|--|----|
|
|----------------------|----------------------|----------------------|----------------------|0------------|0---|0-|0---|
|----------------------|----------------------|----------------------|----------------------|0------------|2---|0-|2---|
|9-9-9-9-9-9-9-9-9-9-9-|----------------------|9-9-9-9-9-9-9-9-9-9-9-|----------------------|1------------|2---|1-|2---|
|9-9-9-9-9-9-9-9-9-9-9-|7-7-7-7-7-7-7-7-7-7-7-|9-9-9-9-9-9-9-9-9-9-9-|7-7-7-7-7-7-7-7-7-7-7-|2------------|2---|2-|2---|
|7-7-7-7-7-7-7-7-7-7-7-|7-7-7-7-7-7-7-7-7-7-7-|7-7-7-7-7-7-7-7-7-7-7-|7-7-7-7-7-7-7-7-7-7-7-|2------------|0---|2-|0---|
|0-0-0-0-0-0-0-0-0-0-0-|5-5-5-5-5-5-5-5-5-5-5-|0-0-0-0-0-0-0-0-0-0-0-|5-5-5-5-5-5-5-5-5-5-5-|0------------|----|0-|----|
Asi.....                                                                                     El trafico...  

Regresa a el verso, toca otravez el coro y pasa al solo 1.

Solo 1 (Cada nota se toca 2 veces es decir: 7-7-7 equivale a -777777-)                                 Verso 3 
4/4....................................................................................................3/4...............................
|----------------|----------------|----------------|----------------|----------------|----------------|----------------|----------------|
|----------------|----------------|----------------|----------------|----------------|----------------|----------------|----------------|
|9-9-9-1111119-9-|9-11111114141413|13131111119-9-9-|9-9-9-1111119-9-|9-11111114141416|1616181818212121|21--------------|----------------|
|----------------|----------------|----------------|----------------|----------------|----------------|----Se sostiene por 3 barras-----|
|7-7-7-9-9-9-7-7-|7-9-9-9-12121211|11119-9-9-7-7-7-|7-7-7-9-9-9-7-7-|7-9-9-9-12121214|1414161616191919|19--------------|----------------|
|----------------|----------------|----------------|----------------|----------------|----------------|----------------|---------------- 
|                                                                                                     Rasgueado.........................
|----------------|----------------|----------------|----------------|----------------|----------------|0---------------|0---------------|
|----------------|----------------|----------------|----------------|----------------|----------------|0---------------|2---------------|
|9-9-9-------9-9-|9-------9-9-9---|----9-9-9-------|9-9-9-------9-9-|9-------9-9-9---|----9-9-9-------|1---------------|2---------------|
|9-9-9-7-7-7-9-9-|9-7-7-7-9-9-9-7-|7-7-9-9-9-7-7-7-|9-9-9-7-7-7-9-9-|9-7-7-7-9-9-9-7-|7-7-9-9-9-7-7-7-|2---------------|2---------------|
|7-7-7-7-7-7-7-7-|7-7-7-7-7-7-7-7-|7-7-7-7-7-7-7-7-|7-7-7-7-7-7-7-7-|7-7-7-7-7-7-7-7-|7-7-7-7-7-7-7-7-|2---------------|0---------------|
|0-0-0-5-5-5-0-0-|0-5-5-5-0-0-0-5-|5-5-0-0-0-5-5-5-|0-0-0-5-5-5-0-0-|0-5-5-5-0-0-0-5-|5-5-0-0-0-5-5-5-|0---------------|----------------|

Se toca el verso 3 y en el precoro se toca el B por una barra mas, se toca dos veces el coro y pasa al solo 2.


 Solo 2   
|----------------|----------------|----------------|----------------|----------------|----------------|----------------|----------------|
|----------------|----------------|----------------|----------------|----------------|----------------|----------------|----------------|
|9-9-9-1111119-9-|9-11111114141413|13131111119-9-9-|9-9-9-1111119-9-|9-11111114141416|1616181818212121|21--------------|----------------|
|----------------|----------------|----------------|----------------|----------------|----------------|----Se sostiene por 3 barras-----|
|7-7-7-9-9-9-7-7-|7-9-9-9-12121211|11119-9-9-7-7-7-|7-7-7-9-9-9-7-7-|7-9-9-9-12121214|1414161616191919|19--------------|----------------|
|----------------|----------------|----------------|----------------|----------------|----------------|----------------|---------------- 
|                              
|----------------|----------------|----------------|----------------|----------------|----------------|----------------|----------------|
|----------------|----------------|----------------|----------------|----------------|----------------|----------------|----------------|
|9-9-9-------9-9-|9-------9-9-9---|----9-9-9-------|9-9-9-------9-9-|9-------9-9-9---|----9-9-9-------|-----Se sostiene hasta el final--|
|9-9-9-7-7-7-9-9-|9-7-7-7-9-9-9-7-|7-7-9-9-9-7-7-7-|9-9-9-7-7-7-9-9-|9-7-7-7-9-9-9-7-|7-7-9-9-9-7-7-7-|2---------------|----------------|
|7-7-7-7-7-7-7-7-|7-7-7-7-7-7-7-7-|7-7-7-7-7-7-7-7-|7-7-7-7-7-7-7-7-|7-7-7-7-7-7-7-7-|7-7-7-7-7-7-7-7-|2---------------|----------------|
|0-0-0-5-5-5-0-0-|0-5-5-5-0-0-0-5-|5-5-0-0-0-5-5-5-|0-0-0-5-5-5-0-0-|0-5-5-5-0-0-0-5-|5-5-0-0-0-5-5-5-|0---------------|----------------|

 
|----------------|----------------|----------------|----------------|----------------|----------------|----------------|----------------|
|----------------|----------------|----------------|----------------|----------------|----------------|----------------|----------------|
|----------------|16*-------------|----------------|----------------|----------------|----------------|----------------|----------------|
|----------------|-----Se sostiene hasta el final--|----------------|----------------|----------------|----------------|----------------|
|----------------|----------------|----------------|----------------|----------------|----------------|----------------|----------------|
|----------------|----------------|----------------|----------------|----------------|----------------|----------------|----------------| 
|                 *se obtiene por la retroalimentacion.
|----------------|----------------|----------------|----------------|----------------|----------------|----------------|----------------|
|----------------|----------------|----------------|----------------|----------------|----------------|----------------|----------------|
|----------------|----------------|----------------|----------------|----------------|----------------|----------------|----------------|
|----------------|----------------|----------------|----------------|----------------|----------------|----------------|----------------|
|----------------|----------------|----------------|----------------|----------------|----------------|----------------|----------------|
|----------------|----------------|----------------|----------------|----------------|----------------|----------------|----------------|

No se si los solos estan bien pero suenan chido, se tocan con distorcion.
En los versos la guitarra 2 es limpia, y la 1 sale.
En los coros las dos van distorcionadas.
Correcciones y comentarios: andles@
Suggest correction
Give kudos to tab author, rate the tab!
1 2 3 4 5
comments
print report bad tab
guest
Wanna post a correction for this tab? Suggest correction