Oops, an error
Loading. Please wait.

Lo Dudo Tab

version 1
version 1

Whole song

by Jumbo
69 views 1 this week
no commentswrite comment
1 2 3 4 5
3 more votes to show rating
add to favorites
×
Save as Personal and add changes to this tab that will be seen only by you. Learn more ›
×
You can save this tab as Personal to edit and correct it or add notes. All changes will be seen only by you. Learn more »
save as personal
new!
launch autoscroll
font size
0
reset
how to read this tab
guitar tuner
Autoscroll
slow
fast
+/-
esc
set tempo
stop
INTRO
E-3--------
B---3------
G-----3-0-- X2
D----------
A----------
E----------


Riff 1 x2 veces
E-3--------------------------------------------5--1---------------
B---3------------3---------1---3-1----------1----------------3----
G-----3-0--0*-3--------0---------------------------------------2--
D-----------------0--1-------------1/3-3------------3/0------------
A--------------------------------------------------------1--------
E-----------------------------------------------------------------

*Solo se toca cuando entra la bateria en el 2ndo parrafo

CORO x2 veces
E---------------------------------------------------------------------------
B-1-4-3-1---------1-4-3-1------------------------------------------------1--
G---------1-0-0-----------1-0-0---2/3\2------3-0-0-3----2/3\2-----3---------
D----------------------------------------1-3------------------1-3----1-3----
A---------------------------------------------------------------------------
E---------------------------------------------------------------------------

E-----------------------------------------------
B---------------1--------3----------------1-----
G-----2/3\2----------0-2------2/3\2----------3-- 
D-----------1-3----------------------1-3-------- 
A-----------------------------------------------
E-----------------------------------------------


INTERLUDE X2 VECES  *
e-------------------3-------------
B------3-----3------3-------------
G--0-3---5-----5-0--3------------- 
D-------------------5-------------
A-------------------5-------------
E-------------------3-------------

* (de abajo hacia arriba)

riff 2
e--------------------
B--3-----------------
G----3-0-2--3-2-0---- X10 VECES
D--------------------
A--------------------
E--------------------

RIFF1 X 1 vez

CORO X 3 veces

Gm x 1 vez * (de abajo hacia arriba)

RIFF 2 X 3 veces

Gm (fin)
Suggest correction
Give kudos to tab author, rate the tab!
1 2 3 4 5
comments
print report bad tab
guest
Wanna post a correction for this tab? Suggest correction