Oops, an error
Loading. Please wait.

Lo Dudo Tab

version 2
version 2

Whole song

by Jumbo
131 views 1 this week
no commentswrite comment
1 2 3 4 5
3 more votes to show rating
add to favorites
launch autoscroll
font size
0
reset
how to read this tab
guitar tuner
×
Best way to learn
"Lo Dudo"
Autoscroll
slow
fast
+/-
esc
set tempo
stop
intro

   Gm
e]-3-----]
b]--3----]
g]---3---]
D]----5~-]
A]-------]
E]-------]..x2

esta parte se toca junto con el verso......
   Gm         Cm          F         A#maj7
e]-3----------------------------------------]
b]--3------3-------3~-------10~--------3----]
g]---3----3------5~---5~------10~-------2~--]
D]----5~-5------5---------------------------]
A]-----------5h6--------6/8~------81~-------]
E]------------------------------------------]


Gm
Anda y ve, te esta esperando

Cm                         F
Anda y ve, no lo hagas por mi

              A#maj7     D7
Somos solo amigos


Gm
Anda y ve, estas nerviosa

Cm                           F
Anda y ve, y que sientas con él

                   A#maj7       D7
Lo que sentias conmigo


CORO:


G7       Cm
Pero lo dudo

 F                      A#maj7
Conmigo te mecias en el aire

Gm                           Cm
Volabas en caballo blanco el mundo

    D7                         Gm
Y aquellas cosas no podran volver

G7          Cm
Y es que lo dudo

F                            A#maj7
Aveces me haz llorado por un beso

Gm                          Cm
Llorado de alegria y no de miedo

   D7                        Gm
Y dudo que te pase igual con él


        Cm      Gm
e]------3-------3-------]
b]---3--4-4-----3-3-----]
g]--3---5--5----3--3----]
D]-5----5---5~--5---5~--]
A]------3-------5-------]
E]--------------3-------]...x2


esta es la parte que lleva los arreglos sobre el verso II......
      Gm*                    Cm*                     F*
e]-------------]       e]-------------]         e]-------------]
b]-3-----------]       b]-4-----------]         b]-4-----------]
g]--3-2~-3-2---]       g]--3-2~-3-2---]         g]--3-2~-3-2---]
D]---5------5~-]       D]---5------5~-]         D]---3------3~-]
A]-------------]       A]-------------]         A]-------------]
E]-------------]x2     E]-------------]x2       E]-------------]x2


        A#maj7*     D7*
e]---------------------]
b]-3-------------------]
g]--3-2~-3-2-------2-3-]
D]---3------3-(3)-5----]
A]---------------------]
E]---------------------]


Gm*
Anda y ve, te esta esperando

Cm*                        F*
Anda y ve, no lo hagas por mi

              A#maj7*    D7*
Somos solo amigos


Gm
Anda y ve, estas nerviosa

Cm                           F
Anda y ve, y que sientas con él

                   A#maj7       D7
Lo que sentias conmigo


CORO:


G7       Cm
Pero lo dudo

 F                      A#maj7
Conmigo te mecias en el aire

Gm                           Cm
Volabas en caballo blanco el mundo

    D7                         Gm
Y aquellas cosas no podran volver

G7          Cm
Y es que lo dudo

F                            A#maj7
Aveces me haz llorado por un beso

Gm                          Cm
Llorado de alegria y no de miedo

   D7                        Gm
Y dudo que te pase igual con él

G7        Cm
Pero lo dudo...    (continua la progresion de acordes del coro)


al final se toca esta figura hasta ke termina la canción

     Gm
e]----------------]
b]-3--------------]
g]--3-2~-3-2-0~---]
D]---5------5~----]
A]----------------]
E]----------------]....

acordes utilizados..


   G7   Gm    F    D7   A#maj7
e]--3----3----1----5----1----]
b]--3----3----1----7----3----]
g]--4----3----2----5----2----]
D]--3----5----3----7----3----]
A]--5----5----3----5----1----]
E]--3----3----1--------------]


trate de ser lo mas esplicito ke pude.... espero les sirva
Suggest correction
Give kudos to tab author, rate the tab!
1 2 3 4 5
comments
print report bad tab
guest
You may want to rate the tab now too:
select rating
Wanna post a correction for this tab? Suggest correction