Oops, an error
Loading. Please wait.

Monotransistor Bass

by Jumbo
41 views 3 this week
no commentswrite comment
1 2 3 4 5
3 more votes to show rating
add to favorites
launch autoscroll
font size
0
reset
guitar tuner
Autoscroll
slow
fast
+/-
esc
set tempo
stop
Jumbo
Monotransistor
Restaurant
Tabbed by: Elite_1

Intro:

G------------------------------------------------
D------------------------------------------------
A------------------------------------------------
E-1-33-1-33-1-33--1-3-1--77-3-1------------------

Verso:

G------------------------------------------------
D------------------------------------------------
A------------------------------------------------
E-1-33-1-33-1-33--1-3-1--77-3-1------------------

Coro :

Prende el Monotransistor .....

G------------------------------------------------
D------------------------------------------------
A-1-0-1---3-1-3----------------------------------
E----------------1-33-1-33-1-33--1-3-1--77-3-1---

Verso 2:

todo se empieza a caer .....

G------------------------------------------------
D------------------------------------------------
A------------------------------------------------
E-1-33-1-33-1-33--1-3-1--77-3-1------------------

CORO ( Otra vez )


SOLO
Durante el solo del teclado:

G------------------------------------------------
D------------------------------------------------
A------------------------------------------------
E-1-33-1-33-1-33--1-3-1--77-3-1------------------

CORO ( Otra vez )

Outro:

Puedo Volar !! .......
G-----------------------------------------------
D-----------------------------------------------
A-----------------------------------------------
E-3--1-3-1-3--3--1-33-1-3---1-3-1-3--3--1-33-1-3

G-----------------------------------------------
D-----------------------------------------------
A-----------------------------------------------
E-3--1-3-1-3--3--1-33-1-3---1-3-1--2------------
Suggest correction
Give kudos to tab author, rate the tab!
1 2 3 4 5
comments
print report bad tab
guest
Wanna post a correction for this tab? Suggest correction