Oops, an error
Loading. Please wait.

Monotransistor Tab

version 2
version 2

Whole song

24 views 1 this week
no commentswrite comment
1 2 3 4 5
3 more votes to show rating
add to favorites
launch autoscroll
font size
0
reset
how to read this tab
guitar tuner
Autoscroll
slow
fast
+/-
esc
set tempo
stop
Help us to improve Ultimate-Guitar.com Take our survey!
×
6º Cuerda en D

E|------------------------------------------------
B|------------------------------------------------
G|------------------------------------------------
D|-3--5-5--3--5-5--3--5-5--3--5-5--9--5-----------
A|-3--5-5--3--5-5--3--5-5--3--5-5--9--5-----------
D|-3--5-5--3--5-5--3--5-5--3--5-5--9--5-----------

Prende el monotransistor.....
(X2)

E|------------------------
B|------------------------
G|------------------------
D|--8-7-8----10-8-10------
A|--8-7-8----10-8-10------
D|--8-7-8----10-8-10------

E|------------------------------------------------
B|------------------------------------------------
G|------------------------------------------------
D|-3--5-5--3--5-5--3--5-5--3--5-5--9--5-----------
A|-3--5-5--3--5-5--3--5-5--3--5-5--9--5-----------
D|-3--5-5--3--5-5--3--5-5--3--5-5--9--5-----------


Nunca se te acabó......
E|--------------------------
B|--------------------------
G|--------------------------
D|--8-7-8----10-8-10---4-5--
A|--8-7-8----10-8-10---4-5--
D|--8-7-8----10-8-10---4-5--

Solo

Puedo volar....

E|-------------------------------------------------
B|-------------------------------------------------
G|-------------------------------------------------
D|-5--3-5-3-5-5--3-5-3--5----3-5-3-5-5--3-5-3--5---
A|-5--3-5-3-5-5--3-5-3--5----3-5-3-5-5--3-5-3--5---
D|-5--3-5-3-5-5--3-5-3--5----3-5-3-5-5--3-5-3--5---

E|-------------------------------------
B|-------------------------------------
G|-------------------------------------
D|-3-5-3-5-5--3-5-3--5------3-5-3--4---
A|-3-5-3-5-5--3-5-3--5------3-5-3--4---
D|-3-5-3-5-5--3-5-3--5------3-5-3--4---
Suggest correction
Give kudos to tab author, rate the tab!
1 2 3 4 5
comments
print report bad tab
guest
You may want to rate the tab now too:
select rating
Wanna post a correction for this tab? Suggest correction