Oops, an error
Loading. Please wait.

Motocicleta Tab

24 views 1 this week
no commentswrite comment
1 2 3 4 5
3 more votes to show rating
add to favorites
launch autoscroll
font size
0
reset
how to read this tab
guitar tuner
×
Best way to learn
"Motocicleta"
Autoscroll
slow
fast
+/-
esc
set tempo
stop
Les resomiendo escuchar la cancion para que escuchen el ritmo

Esta parte se repite varias veces
 
E-----------------------------------------------
B-----------------------------------------------
G-----------------------------------------------
D3-305-503-30-5-5-5 etc-------------------
A-----------------------------------------------
E-----------------------------------------------

Esta otra pare tambien se repite varias veces
E-----------------------------------------------
------------------------------------------------
G-----------------------------------------------
D-----------------------------------------------
A----14---16-----16-----18-------1416etc------
E-----------------------------------------------

Esta parte hagan una pequeña pausa en cada nota

E---------5--------------2------------9--------5---------2------7--------5-------2---
B------------------------------------------------------------------------------------
G-----6-------------3------------10---------6--------3------8--------6--------3------
D---7------------4-----------11-----------7--------4-------9-------7--------4--------
A------------------------------------------------------------------------------------
E------------------------------------------------------------------------------------

Passense de las notas 10-9-8 a las 11-10- hagan lo mismo con las notas 7

E----------8>>>----------9Ã?2-----------------------
B--------------------------------------------------
G-------9>>>>-------10Ã?2--------------7-->>>7------
D---10>>>>>----11Ã?2-----------------7---7->>>>7----
A----------------------------------7-----7>>>>7----
E----------------------------------7------>>>-7----
Suggest correction
Give kudos to tab author, rate the tab!
1 2 3 4 5
comments
print report bad tab
guest
You may want to rate the tab now too:
select rating
Wanna post a correction for this tab? Suggest correction