Oops, an error
Loading. Please wait.

Rockstar Tab

by Jumbo
103 views 6 this week
no commentswrite comment
1 2 3 4 5
3 more votes to show rating
add to favorites
×
Save as Personal and add changes to this tab that will be seen only by you. Learn more ›
×
You can save this tab as Personal to edit and correct it or add notes. All changes will be seen only by you. Learn more »
save as personal
new!
launch autoscroll
font size
0
reset
how to read this tab
guitar tuner
Autoscroll
slow
fast
+/-
esc
set tempo
stop
Esta es la nueva canción de Jumbo...yo nada más he oído la versión en vivo, 
así que esa es la que transcribí aquí; no sé si sea igual que en el CD.


La parte que se toca en casi toda la canción es así: (se repite varias veces)

Riff 1

    B        A7       G#m           B       A7        G#m
e------7--------5---------------------7--------5----------------------------
B------7--------5---------------------7--------5----------------------------
G------8--------6---------------------8--------6----------------------------
D--9-9-9-xx-5-5-5-xx-6-6-6---x-x--9-9-9-xx-5-5-5-xx-6-6-6---x-x------------- 
A--9-9-9-xx-7-7-7-xx-6-6-6---x-x--9-9-9-xx-7-7-7-xx-6-6-6---x-x-------------
E--7-7-7-xx-5-5-5-xx-4-4-4---x-x--7-7-7-xx-5-5-5-xx-4-4-4---x-x-------------


y nada más cambia cuando dice: 'todo lo quieres, pero nada sabes usar...' 
(se toca dos veces)

Riff 2

   Esus2(?)     E5        B        A7       G#m
e--777777777-77777777--------7--------5-----------------
B--777777777-77777777--------7--------5-----------------
G--777777777-99999999--------8--------6-----------------
D--999999999-99999999----9-9-9-xx-5-5-5-xx-6-6-6---x-x-- 
A--777777777-77777777----9-9-9-xx-7-7-7-xx-6-6-6---x-x--
E--777777777-77777777----7-7-7-xx-5-5-5-xx-4-4-4---x-x--

toda la canción es alternando estas dos partes.
el solo es como sigue: (con el riff 1)

e----------------------------------------------------------------------
B--7b-7-7-7-7-5-5-5-5-4-4-4-4-0-0-0-0--/7-7-7-7-5-5-5-5-4-4-4-4-0-0-0-0-
G----------------------------------------------------------------------
D---------------------------------------------------------------------- 
A----------------------------------------------------------------------
E----------------------------------------------------------------------

e----------------------------------------------------------------------
B--4-5-4-5b-4-5-4-4-5-4-5b-4-5-4/7-7-7-7-5-5-5-5-4-4-4-4-0-0-0-0-------
G----------------------------------------------------------------------
D---------------------------------------------------------------------- 
A----------------------------------------------------------------------
E----------------------------------------------------------------------

y vuelves a tocar el riff 2. Luego continúas con el riff 1 varias veces. 
El solo se repite al final, sólo que las últimas notas las toca más 
despacio y se queda en el -0-.

Dudas, preguntas, comentarios... escríbanme.
Suggest correction
Give kudos to tab author, rate the tab!
1 2 3 4 5
comments
print report bad tab
guest
Wanna post a correction for this tab? Suggest correction