Oops, an error
Loading. Please wait.

Se Hace Tarde Bass Tab

20 views 1 this week
no commentswrite comment
1 2 3 4 5
3 more votes to show rating
add to favorites
launch autoscroll
font size
0
reset
guitar tuner
×
Best way to learn
"Se Hace Tarde"
Autoscroll
slow
fast
+/-
esc
set tempo
stop
bueno es la primer cancion que hago para la cuerda y como me a
ensenado mucho tratare de aportar algo aqui va

es un bajeo muy simple empieza la guitarra

seg 40

G--------------------------------------
D----------5---7---5-------------------
A----5--7------------------------------
E--------------------------------------      4x

min 54


G-------------------------------------------
D------------------------9------------------
A-------------9--10-12-------12-------------
E----10---12--------------------------------

min 1.01

G---------------------------------------------
D---------------------------------------------
A---5----3----2-3-----5-----3-----2-3--/---10-
E---------------------------------------------

min 1.21


G--------------------------------------
D----------5---7---5-------------------
A----5--7------------------------------
E--------------------------------------       4x

min 1.35


G-------------------------------------------
D------------------------9------------------
A-------------9--10-12-------12-------------
E----10---12--------------------------------

min 1.42

G---------------------------------------------
D---------------------------------------------
A---5----3----2-3-----5-----3-----2-3-----5---
E--------------------------------------------- 2x

min 1.55


G-----------------------------------------------
D------------------------9----------------------
A-------------9--10-12-------12--10------12-----
E----10---12-------------------------12---------

min 2.07

G--------------------------------------
D----------5---7---5-------------------
A----5--7------------------------------
E--------------------------------------  8x

min 2.34

G--------------------------------------------
D--------------------------------------------
A-----8----7----5----3----5--/---10----------
E--------------------------------------------


bueno y eso es todo esta muy facil se ve mas rapida pero el
ritmo es muy lento escuchenla lo van a sacar muy rapido puede
que este mal de octavba en el bajo porque la saque en la
guitarra pero las notas en si creo que son correctas.
Suggest correction
Give kudos to tab author, rate the tab!
1 2 3 4 5
comments
print report bad tab
guest
You may want to rate the tab now too:
select rating
Wanna post a correction for this tab? Suggest correction