Oops, an error
Loading. Please wait.

Super Actriz Tab

version 1
version 1

Whole song

by Jumbo
20 views 1 this week
no commentswrite comment
1 2 3 4 5
3 more votes to show rating
add to favorites
launch autoscroll
font size
0
reset
how to read this tab
guitar tuner
×
Best way to learn
"Super Actriz"
Autoscroll
slow
fast
+/-
esc
set tempo
stop
Esto es una corrección 

intro                          

       E             G                  F# 
e---------------------------------------2------------
B----------0---------3---------------2-----2---------
G-------1---------------4---------3-----------3------
D----2------------5------------4-----------------4---
A----------------------------------------------------
E-0------------3------------2------------------------


  Me dices que es mejor llorar....
e---------------------------------------2------------
B----------0---------3---------------2-----2---------
G-------1---------------4---------3-----------3------
D----2------------5------------4-----------------4---
A----------------------------------------------------
E-0------------3------------2------------------------


  Me dices que es mejor dejarlo todo..
e---------------------------------------2------------
B----------0---------3---------------2-----2---------
G-------1---------------4---------3-----------3------
D----2------------5------------4-----------------4---
A----------------------------------------------------
E-0------------3------------2------------------------
Suggest correction
Give kudos to tab author, rate the tab!
1 2 3 4 5
comments
print report bad tab
guest
You may want to rate the tab now too:
select rating
Wanna post a correction for this tab? Suggest correction