Oops, an error
Loading. Please wait.

Super Actriz Tab

version 2
version 2

Whole song

23 views 1 this week
no commentswrite comment
1 2 3 4 5
3 more votes to show rating
add to favorites
launch autoscroll
font size
0
reset
how to read this tab
guitar tuner
Autoscroll
slow
fast
+/-
esc
set tempo
stop
Help us to improve Ultimate-Guitar.com Take our survey!
×
INTRO
e-----------------------------------6-7-9-7----------|
b------------0------------------------------5--------|
g----------1---------------------6------------6------|
d--------2------------5-------4----------------------|
a-------------------3---3----------------------------|
E----0------------3----------------------------------|

e-----------------------------------7-------7--6-----|
b------------0------------------------------5--5-----|
g----------1---------------------6----6-----6--6-----|
d--------2------------5-------4-------------4--4-----|
a-------------------3---3----------------------------|
E----0------------3----------------------------------|

VERSO
                                                    
e-----------------------------------6-7-9-7----------|
b------------0------------------------------5--------|
g----------1---------------------6------------6------|
d--------2------------5-------4----------------------|
a-------------------3---3----------------------------|
E----0------------3----------------------------------|

e-----------------------------------7-------7--6-----|
b------------0------------------------------5--5-----|
g----------1---------------------6----6-----6--6-----|
d--------2------------5-------4-------------4--4-----|
a-------------------3---3----------------------------|
E----0------------3----------------------------------|

e-----------------------------------6-7-9------------|
b------------0---------------------------------------|
g----------1---------------------6-------------------|
d--------2------------5-------4----------------------|
a-------------------3---3----------------------------|
E----0------------3----------------------------------|

e---0----                           e--4----5----|
b---0----                           b--7----8----|
g---1----                           g--6----7----|
d---2----                           d--4----5----|
a---2----                           a------------|
E---0---- se oye el rasgueo y hace  E------------|
combinaciones con estas pisadas (arpegeos y rasgueos leves)   

e-------  
b--7-----
g--6-----
d--4-----
a------- termina con un rasgueo asi
E------- y empieza el coro

y luego te quedas callada
con tu cara de...
CORO	
e------------------------------------------------  
b------------------------------------------------
g------------------------------------------------
d--9999-4444-5555555/777-9999-4444-5555555/777---
a--9999-4444-5555555/777-9999-4444-5555555/777---
E--777702222-3333333/555-777702222-3333333/555---

e------------------------------------------------  
b------------------------------------------------
g------------------------------------------------
d--9999-4444-5555555/777-9999-4444-5555555-------
a--9999-4444-5555555/777-9999-4444-5555555-------
E--777702222-3333333/555-777702222-3333333-0-3-2-
(se deja oir y se oye el teclado)

VERSO (ahora con un poco de disto)

CORO 

se viene el solo

SOLO

y abajo del solo se oye esto

e----------------------------------------------------------
b----------------------------------------------------------
g----------------------------------------------------------
d---7777777777-4444444444-7777777777-4444444444-7777-9999--
a---7777777777-4444444444-7777777777-4444444444-7777-9999--
E---5555555555-2222222222-5555555555-2222222222-5555-7777--

se oye el bajo y efecto de teclado

y viene el CORO otra vez

CORO

e------------------------------------------------  
b------------------------------------------------
g------------------------------------------------
d--9999-4444-5555555/777-9999-4444-5555555/777---
a--9999-4444-5555555/777-9999-4444-5555555/777---
E--777702222-3333333/555-777702222-3333333/555---

e------------------------------------------------  
b------------------------------------------------
g------------------------------------------------
d--9999-4444-5555555/777-9999-4444-5555555-5------
a--9999-4444-5555555/777-9999-4444-5555555-5------
E--777702222-3333333/555-777702222-3333333-3------

Falto el solo de enmedio pero prometo ponerlo pronto

FIN
Suggest correction
Give kudos to tab author, rate the tab!
1 2 3 4 5
comments
print report bad tab
guest
You may want to rate the tab now too:
select rating
Wanna post a correction for this tab? Suggest correction