Oops, an error
Loading. Please wait.

Super Actriz Tab

version 3
version 3

Whole song

by Jumbo
26 views 1 this week
no commentswrite comment
1 2 3 4 5
3 more votes to show rating
add to favorites
launch autoscroll
font size
0
reset
how to read this tab
guitar tuner
×
Best way to learn
"Super Actriz"
Autoscroll
slow
fast
+/-
esc
set tempo
stop
Cancion: Super Actriz
Por: Jumbo
Album: Restaurante

Afinacion estandar

Acordes:
        E A D G B E 
    E   0 2 2 1 0 0
    F#  2 4 4 3 2 2
    G   3 5 5 4 3 3
    A   5 7 7 6 5 5
    B5  X 2 4 4 X X

Intro

Guitarra 1 (sin efecto)
e|-----------------------------9-----------|
b|-------0---------------11-12---12--------|
g|--------------0-------------------9------|
d|-----6------0--------11-------------11---|
a|---7--------------/9---------------------|
E|-0--------3------------------------------|

Guitarra 2 (Con Wha)
e|-----------------------------------------|
b|-------------------11~-------------------|
g|--------------------9~-------------------|
d|-------------------11~-------------------|
a|--------------------9~-------------------|
E|-----------------------------------------|

Guitarra 1 (sin efecto)
e|-----------------------------------------|
b|-------0---------------11--12--11~-------|
g|--------------0-------------9---9~-------|
d|-----6------0--------11----11--11~-------|
a|---7--------------/9--------9---9~-------|
E|-0--------3------------------------------|

Verso: La Guitarra 1 continua haciendo la figura del Intro y la Guitarra 2 continua
       con el mismo efecto y la figura que le corresponde en el into.


   Me dices que es mejor llorar,
   Me dices que es mejor dejarlo todo.
   Me dices al oido que me quieres y te vas

Puente 1: Solo E se toca un solo rasgueo al entrar de abajo para arriba, los
          otros acordes se tocan algunas cuerdas, como punteando al azar, se puede
          que solo toque una guitarra suena bien. Cuando llegas a A ya son las dos liras
          tocando un riff mas constante, me entiendes si ya conoces la cancion.
   
 E            F#
   con tu fastidio

     G             F#       G                 F#
   luego no dices nada... luego te quedas callada

           A
   con tu cara de....

Coro: Las dos guitarras y con distorsión, ya sabes las posiciones de las 5tas. de cada acorde,
      esta bien cagado.


B5   F#5       G5     A5       B5
   uhuuuuuuuuuuuu ...Super actriz
     F#5              G5               A5        B5
   uhuuuuuuuuuuuu ...Deja de actuar dime la verad
     F#5             G5     A5       B5
   uhuuuuuuuuuuuu ...Su... Super actriz
     F#5             G5                 A5
   uhuuuuuuuuuuuu ...Deja de actuar dime la verad

Nota: Despues del coro una guitarra se queda con distorsion, tocando solo el bajo del
      acorde que corresponde, es decir:


      E   G   F#  (se repite, recuerda que solo el bajo y con distorsion)
 
      ...la otra lira hace algo como esto, no se el efecto pongan el que les agrade,
      yo la toco con un falger no muy cargado, hace el el pseudo efecto de hammond,..
      se oye chido y pacheco... esta parte la adecue del hammond que se escucha...

  
  e|---------------------------------------2----|
  b|----0-2-3-2-0-----------0-2-3-2-0-----------|
  g|--------------3---------------------3-------|
  d|-2~-------------4----2~---------------------|
  a|--------------------------------------------|
  E|--------------------------------------------|

Verso: El el este verso se hace algo similar a lo del primero, las dos liras
       van igual de hecho.

    Me dices que es mejor odiar,
    me dicer que es mejor actuarlo todo,
    no quiero que me vengas a l oido si te vas...  

Puente 2: Es igual que el primero, con los mismos riffs y ritmos.
  
  E                F#
    ... con tu murmuyo... y

  G             F#       G                 F#
   luego no dices nada... luego te quedas callada

           A
   con tu cara de....     


Coro: Igual que el anterior.

B5   F#5       G5     A5       B5
   uhuuuuuuuuuuuu ...Super actriz
     F#5              G5               A5        B5
   uhuuuuuuuuuuuu ...Deja de actuar dime la verad
     F#5             G5     A5       B5
   uhuuuuuuuuuuuu ...Su... Super actriz
     F#5             G5                
   uhuuuuuuuuuuuu ...Deja de actuar dime la verdad... quiero que...


Solo: Esto es lo que esta mas chingon, una lira sigue con distorsion tocando 
      los acordes de arriba del tab y la otra tocando el solo con Wha... 
      se escucha bien perro...

   A5                           F#5
e|------------------------------------------------------------------------|
b|------------------------------------------------------------------------|
g|-9-9-9-9-9-9-9-9-9-9-9-9-9-9--11-11-11-11-11-11-11-11-11-11-11-11-11-11-|
d|------------------------------------------------------------------------|
a|-7-7-7-7-7-7-7-7-7-7-7-7-7-7--9--9--9--9--9--9--9--9--9--9--9--9--9--9--|
E|------------------------------------------------------------------------|

   A5
e|---------------------------------------------|
b|---------------------------------------------|
g|-14-14-14-14-12-12-12-12-11-11-11-11-9-9-9-9-|
d|---------------------------------------------|
a|-12-12-12-12-10-10-10-10-9--9--9--9--7-7-7-7-|
E|---------------------------------------------|
   F#5                                        A5  B5
e|-----------------------------------------------------|
b|-----------------------------------------------------|
g|-11/-12--12\-11-11/-12--12/-14-14\-12-12/14-14--16~--|
d|-----------------------------------------------------|
a|-9-/-10--10\-9--9-/-10--10/-12-12\-10-10/12-12--14~--|
E|-----------------------------------------------------|

Puente 3: En este otro puente el bajo queda tocando solo los acordes del coro 
          durante 4 tiempor, es decir B, F, G, A cuatro veces... diganle 
          a su bajista que improvise algo chido, tambien pueden intentar tocar 
          con la guitarra los mismos acordes pero con un efecto ambiental o algo 
          que improvisen...

Coro: Es el ultimo ya saben que lleva...

B5   F#5       G5     A5       B5
   uhuuuuuuuuuuuu ...Super actriz
     F#5              G5               A5        B5
   uhuuuuuuuuuuuu ...Deja de actuar dime la verad
     F#5             G5     A5       B5
   uhuuuuuuuuuuuu ...Su... Super actriz
     F#5             G5                     A5     B5
   uhuuuuuuuuuuuu ...Deja de actuar dime la verdad
     F#5             G5     A5       B5    G5
   uhuuuuuuuuuuuu ...Su... Super actriz
        
Bueno espero que entiendan este tab es lo mas claro posible, si ya conocen bien la rola
se les va a hacer cagadisimo, creo que es el mas correcto que hay pero ustedees diganme 
que les parece... no se les olvide IMPROVISEN, ponganle su toque, siempre en un toquin 
te vienen cosas nuevas a la cabeza... disfrutenlo...
Suggest correction
Give kudos to tab author, rate the tab!
1 2 3 4 5
comments
print report bad tab
guest
You may want to rate the tab now too:
select rating
Wanna post a correction for this tab? Suggest correction