Oops, an error
Loading. Please wait.

Rains In Asia chords

127 views 3 this week
no commentswrite comment
1 2 3 4 5
3 more votes to show rating
add to favorites
×
Save as Personal and add changes to this tab that will be seen only by you. Learn more ›
×
You can save this tab as Personal to edit and correct it or add notes. All changes will be seen only by you. Learn more »
launch autoscroll
font size
0
reset
transpose
0
reset
display chords
guitar tuner
edit
Autoscroll
slow
fast
+/-
esc
set tempo
stop
Strumming
There is no strumming pattern for this song yet. and get +5 IQ
#--------------------------------PLEASE NOTE---------------------------------#
#This file is the author's own work and represents his interpretation of the #
#song. You may only use this file for private study, scholarship or research.#
#----------------------------------------------------------------------------#

Song title:      Rains In Asia
Original Album:  Between The Dim And The Dark (Jump, Little Children)

Words and Music by Jay Clifford
Copyright © 2004 Brash Music
Published by ???

Transcribed by Gavin Chart (contactus@gartfrets.net)


NOTES:
Capo on 3. Chords and tab are relative to capo. Timing is 4/4.


INTRO:
Chords:
D  xx0232
G  320033
A  x02220

[play: Guitar Figure 1]  [x2]

Guitar Figure 1

/ - slide up

|--------------------------------|--------------------------------|
|-------0-0----------------------|-------0-0----------------------|
|-------0-0---2-----2/4---2---0--|-------0-0---2---6-------4------|
|-4-----4-4---0-------0---0---0--|-4-----4-4---0---0-------0------|
|-5------------------------------|-5------------------------------|
|--------------------------------|--------------------------------|

| 1 - & - 2 - & - 3 - & - 4 - & -| 1 - & - 2 - & - 3 - & - 4 - & -|


|--------------------------------|--------------------------------|
|-------0-0----------------------|-3---3---2---0------------------|
|-------0-0---2-----2/4---2---0--|-0---0---0---0---2---2---4---2--|
|-4-----4-4---0-------0---0---0--|-0---0-----------0---0---0---0--|
|-5------------------------------|--------------------------------|
|--------------------------------|-3---3--------------------------|

| 1 - & - 2 - & - 3 - & - 4 - & -| 1 - & - 2 - & - 3 - & - 4 - & -|



VERSE:
Notes:
Guitar Figure 1 is played in the VERSes.

Chords:
D  xx0232
G  320033

[Guitar Figure 1]
D
  She likes the photograph, the one of you and Simone
                     G
Out in the rain on a Sunday morning

[Guitar Figure 1]
D
  She likes to take it out only when she’s feeling down
                           G     
And then she says "Can you hear it raining?"


PRE-CHORUS:
Chords:
D  xx0232
G  320033

[Guitar Figure 1]
D                        G                  D
  She wants to know does everyone feel this way
                     G     D
When it rains in the summertime

[Guitar Figure 1]
D                        G                  D
  She wants to know does everyone feel this way
                           G       D
When you’re sure that he’s gone forever


CHORUS:
Chords:
A  x02220
G  320033

        A             G
When it rains in Asia   (It makes her feel this way)
A          G
California   (It makes her feel this way)
A              G
London, Bombay   (It makes her feel this way)
        A              G
When it rains in Asia__a


[play: Guitar Figure 1]  [x2]


VERSE:
She likes to take the train down to Washington Square
And hear the buskers sing ‘Oh, Susannah’

She likes to let it come right to the tip of her tongue
And then she feels like an angel talking


PRE-CHORUS:
Chords:
D  xx0232
G  320033

[Guitar Figure 1]
D                        G                  D
  She wants to know does everyone feel this way
                      G   D
Outside the walls of America

[Guitar Figure 1]
D                        G                  D
  She wants to know does everyone feel this way
                           G       D
When you’re sure that he’s gone forever

 
[repeat CHORUS]


BRIDGE:
Chords:
A  x02220
G  320033

A            G
She wants to know
      A       G      A
Is it always, always raining somewhere?

[play: | A | % | G | A |]
  
A            G
She wants to know
      A       G      A
Is it always, always raining somewhere?
 
[play: | G | A |]


[Guitar SOLO over Guitar Figure 1]  [x2]


CHORUS2:
Chords:
A  x02220
G  320033

        A              G
When it rains in Asia__a (It makes her feel this way)
A          G
Californi__a (It makes her feel this way)
A               G
London, Bombay__ay (It makes her feel this way)
A          G
Californi__a (It makes her feel this way)
A               G
London, Bombay__ay (It makes her feel this way)
        A              G
When it rains in Asia__a


[play: Guitar Figure 1]

[play: Guitar Figure 2]

Guitar Figure 2

|--------------------------------|--------------------------------|
|-3---2---0-----------2---3---2--|-0-----------2---3---2---0------|
|-0---0---0---2---4---0---0---0--|-0---2---4---0---0---0---0---2--|
|-0-----------0---0-------0------|-----0---0-------0-----------0--|
|--------------------------------|--------------------------------|
|-3-----------------------3------|-----------------3--------------|

| 1 - & - 2 - & - 3 - & - 4 - & -| 1 - & - 2 - & - 3 - & - 4 - & -|

          D
|---------2----------------------|
|-----2---3----------------------|
|-4---0---2----------------------|
|-0-------0----------------------|
|--------------------------------|
|--------------------------------|

| 1 - & - 2 - & - 3 - & - 4 - & -|

[end on D]

            
            
Suggest correction
Creating personal tab
Creating personal tab
You can edit any tab online and save it as your Personal.

You can edit, replace or remove any tab part or add personal notes – all changes will be seen only by you.

Personal tabs can be accessed anytime from any device, even offline.
Learn more »
Give kudos to tab author, rate the tab!
1 2 3 4 5
comments
print report bad tab
guest
You may want to rate the tab now too:
select rating
Wanna post a correction for this tab? Suggest correction