Oops, an error
Loading. Please wait.

Patrick tab

version 2
version 2

Whole song

by June
428 views 1 this week
1 commentread comment
1 2 3 4 5
1 last vote to show rating
add to favorites
×
Save as Personal and add changes to this tab that will be seen only by you. Learn more ›
×
You can save this tab as Personal to edit and correct it or add notes. All changes will be seen only by you. Learn more »
launch autoscroll
font size
0
reset
how to read this tab
guitar tuner
edit
Autoscroll
slow
fast
+/-
esc
set tempo
stop
Difficulty
-------------------------------------------------------------------------------
                             PATRICK - June
-------------------------------------------------------------------------------

rileybrown10@hotmail.com

Tuning: Half-Step down

Intro:
eb|----0~-|
Bb|-------|
Gb|-------|
Db|-5~----|
Ab|-5~----|
Eb|-3~----|

eb|-----------------------|
Bb|-----------------------|
Gb|-22--- -----555-22-----|
Db|-22-5-55-33-555-22-----| x4
Ab|----5-55-33-333--------|
Eb|----3-33-11------------|

Verse:
eb|---------------------------------------------------------------------------|
Bb|---------------------------------------------------------------------------|
Gb|--------------------------------------------------------55555555-----------|
Db|-55-555-555-555-555-555-555-55-2-5555-555-555-522222222-55555555-----------|
Ab|-55-555-555-555-555-555-555-55-2-5555-555-555-522222222-33333333-----------|
Eb|-33-333-333-333-333-333-333-33---3333-333-333-3----------------------------|

eb|---------------------------------------------------------------------------|
Bb|---------------------------------------------------------------------------|
Gb|---------------------------------------------------------------------------|
Db|-3-33-3--5555-3-33-3--5555-------------------------------------------------|
Ab|-3-33-3--5555-3-33-3--5555-7-7-7-7-7-7-7-7-77777777-55555555---------------|
Eb|-1-11-1--3333-1-11-1--3333-5-5-5-5-5-5-5-5-55555555-33333333---------------|

Pre-Chorus:
eb|---------------------------------------------------------------------------|
Bb|---------------------------------------------------------------------------|
Gb|---------------------------------------------------------------------------|
Db|-5~---7~---3~-5~-3~--7~-5~-7~-11-11-11-11-11-11-11-11-11-11-11-11----------|
Ab|-5~---7~---3~-5~-3~--7~-5~-7~-11-11-11-11-11-11-11-11-11-11-11-11----------|
Eb|-3~---5~---1~-3~-1~--5~-3~-5~--9--9--9--9--9--9--9--9--9--9--9--9----------|

Chorus:
eb|--------------------------------------------------|
Bb|--------------------------------------------------|
Gb|-----------------2222222255555555-----------------|
Db|-333333335555555522222222555555553333333355555555-|
Ab|-3333333355555555--------333333333333333355555555-|
Eb|-1111111133333333----------------1111111133333333-|

eb|-----------------------|
Bb|-----------------------|
Gb|-22--- -----555-22-----|
Db|-22-5-55-33-555-22-----|
Ab|----5-55-33-333--------|
Eb|----3-33-11------------|

Repeat Verse and then Chorus. I'm not sure about the bridge or the lead in the 
e-mail me for any suggestions


| /  slide up
| \  slide down
| h  hammer-on
| p  pull-off
| ~  vibrato
| +  harmonic
| x  Mute note
===============================================================================

            
            
Suggest correction
Creating personal tab
Creating personal tab
You can edit any tab online and save it as your Personal.

You can edit, replace or remove any tab part or add personal notes – all changes will be seen only by you.

Personal tabs can be accessed anytime from any device, even offline.
Learn more »
Give kudos to tab author, rate the tab!
1 2 3 4 5
comments
print report bad tab
1 comment total.
0 reply
eat-sleep-blink 31 Aug 08, 2006 07:29 AM

doesnt soung right at all

guest
Wanna post a correction for this tab? Suggest correction