Oops, an error
Loading. Please wait.

Wildwood Flower Tab

version 2
version 2

Intro

10 views 1 this week
no commentswrite comment
1 2 3 4 5
3 more votes to show rating
add to favorites
launch autoscroll
font size
0
reset
how to read this tab
guitar tuner
Autoscroll
slow
fast
+/-
esc
set tempo
stop
Help us to improve Ultimate-Guitar.com Take our survey!
×
Author
Difficulty
novice
Key of: C

Keep your first finger on the first fret of the b string throughout the whole song.

[Intro]

e|-----------------------------------------------------------------------0----------|
B|-----------1---------------------------------1------------------------1-3-1-------|
G|-----0-0h2-----------------------------0-0h2-------------------------0-----0-0h2--|
D|-2-3---------2-3-2-0-2-0-----0h2---2-3---------2-3-2-0-2-0-----0h2----------------|
A|-------------------------2-3-----3-------------------------2-3-----3--------------|
E|----------------------------------------------------------------------------------|

e|---------------------------------------------------------------------------|
B|-1-------------------------------------------------------------------------|
G|---2-0-------0-------------------------------------------------------------|
D|---------0h2---2-0-2-0-----0h2---------------------------------------------|
A|-------3---------------2-3-----3-------------------------------------------|
E|---------------------------------------------------------------------------|

Melody Repeats Throughout the Whole Song.


************************************

| h  Hammer-on

************************************
Suggest correction
Give kudos to tab author, rate the tab!
1 2 3 4 5
comments
print report bad tab
guest
You may want to rate the tab now too:
select rating
Wanna post a correction for this tab? Suggest correction