Oops, an error
Loading. Please wait.

Beautiful Girl Tab

376 views 3 this week
2 commentsread comments
1 2 3 4 5
1 last vote to show rating
add to favorites
launch autoscroll
font size
0
reset
how to read this tab
guitar tuner
Autoscroll
slow
fast
+/-
esc
set tempo
stop
Author
Difficulty
intermediate
Haven't seen these before, so did I it fast. Good luck!

[Intro]
(notes are palm muted)
e|-------------------------------------|
B|-------------------------------------|
G|-------------------------------------|
D|-------2------2--5--2---4h7-4---5-4--|
A|-----2---2--3---------5-------5-----5|
E|---0---------------------------------|



************************************

| h  Hammer-on

************************************
Suggest correction
Give kudos to tab author, rate the tab!
1 2 3 4 5
comments
print report bad tab
2 comments total.
0 reply
joelfolkessonn 29 Jun 08, 2017 02:31 PM, edited at 06:31 pm

e|-------------------------------------|B|-------------------------------------|G|-------------------------------------|D|-------2------2--5--2---4h7-4---5-4--|A|-----2---2--3--------3/5-------5-----5|E|---0---------------------------------| ^i think a slide here sounds a lot better, but thanks for the tab! :)

0 reply
joelfolkessonn 29 Jun 08, 2017 02:32 PM

e|-------------------------------------|
B|-------------------------------------|
G|-------------------------------------|
D|-------2------2--5--2---4h7-4---5-4--|
A|-----2---2--3--------3/5------5-----5|
E|---0---------------------------------|

------------------------^
I think a slide here sounds a lot better, but thanks for the tab! :)

guest
You may want to rate the tab now too:
select rating
Wanna post a correction for this tab? Suggest correction