Oops, an error
Loading. Please wait.

Move Your Feet Bass Tab

version 1
version 1

Whole song

Interactive

16,650 views 48 this week
1 commentread comment
1 2 3 4 5
x 4
add to favorites
launch autoscroll
font size
0
reset
guitar tuner
×
Best way to learn
"Move Your Feet"
Autoscroll
slow
fast
+/-
esc
set tempo
stop
Standard Tuning

Intro

|--------44-------22|
|-------------------|
|0-1-2/5----2-1-0---|
|-------------------|

Verse
|-----------44------|22|
|-------------------|--|
|00-0-1-2/5----2-1-0|--|
|-------------------|--|

Pre-Chorus
|-------|
|-------|
|0--0--0|
|-------|

Chorus
|-----------------------------------------------|
|-----------------------------------------------|
|-5-57-70-00-05-57-70-00-05-57-70-00-05-57-70-00|
|-----------------------------------------------|


Order

intro x1
verse x3
pre-chorus x1
chorus x1
intro x1
verse x3
pre-chorus x0
chorus x1
intro x1
verse x3
pre-chorus x1
chorus x0
intro x1
verse x5
pre-chorus x3
Suggest correction
comments
print report bad tab
1 comment total.
+1 reply
robotfrom94 314 Dec 31, 2013 03:25 AM

There's the little fill before what you call the verse (personally I think of as the chorus but hey ho) and you missed it out. Not sure if that was because there was no bass there on whatever, but it sounds pretty rad anyway
goes like this

G|--------|----44-------22|
D|2-----5-|4--------------|
A|--3-0---|-2/5---2-1-0---|
E|--------|---------------|

it's only done once per phrase

guest
You may want to rate the tab now too:
select rating
Wanna post a correction for this tab? Suggest correction