Oops, an error
Loading. Please wait.

Far Away tab

by Junip
667 views 9 this week
no commentswrite comment
1 2 3 4 5
3 more votes to show rating
add to favorites
×
Save as Personal and add changes to this tab that will be seen only by you. Learn more ›
×
You can save this tab as Personal to edit and correct it or add notes. All changes will be seen only by you. Learn more »
launch autoscroll
font size
0
reset
how to read this tab
guitar tuner
edit
Autoscroll
slow
fast
+/-
esc
set tempo
stop
-------------------------------------------------------------------------------
                             SONG NAME - Band Name
-------------------------------------------------------------------------------
Tabbed by: your_mother_ayy_lmao
E-mail:

Tuning: standard

He has a capo on the 3rd fret over the first three (G, B, e) strings.

Also, the chords written out are strummed fairly rapidly, so instead of writing the strumming out 
I'll just write each chord.

Start:

Step in-front of a runaway train just to feel alive again.
Pushing forward through the night, aching just to blow aside

e|--0--(0)-------------------------------------------------------------------|
B|--0--(0)-------------------------------------------------------------------|
G|--2--(0)-------------------------------------------------------------------|
D|--0--(0)-------------------------------------------------------------------|
A|--5--(5)-------------------------------------------------------------------|
E|--0--(0)-------------------------------------------------------------------|

It's so far, so far away.
It's so far, so far away.

e|--0---0--------------------------------------------------------------------|
B|--0---0--------------------------------------------------------------------|
G|--2---2--------------------------------------------------------------------|
D|--0---0--------------------------------------------------------------------|
A|--3---5--------------------------------------------------------------------|
E|--0---0--------------------------------------------------------------------|

Cold wind blows into the skin.
Can't believe the state you're in. 

e|--0--(0)-------------------------------------------------------------------|
B|--0--(0)-------------------------------------------------------------------|
G|--2--(0)-------------------------------------------------------------------|
D|--0--(0)-------------------------------------------------------------------|
A|--5--(5)-------------------------------------------------------------------|
E|--6--(0)-------------------------------------------------------------------|

It's so far, so far away.
It's so far, so far away.

e|--0---0--------------------------------------------------------------------|
B|--0---0--------------------------------------------------------------------|
G|--2---2--------------------------------------------------------------------|
D|--0---0--------------------------------------------------------------------|
A|--3---5--------------------------------------------------------------------|
E|--0---0--------------------------------------------------------------------|

Who are you trying to impress steadily creating a mess?

e|--0---0---0---0------------------------------------------------------------|
B|--0---0---0---0------------------------------------------------------------|
G|--4---5---7---9------------------------------------------------------------|
D|--0---0---0---0------------------------------------------------------------|
A|--7---8---10--12-----------------------------------------------------------|
E|--0---0---0---0------------------------------------------------------------|

Step in front of a runaway train, just to feel alive again.

e|--0---0---0---0---0---0--(0)-----------------------------------------------|
B|--0---0---0---0---0---0--(0)-----------------------------------------------|
G|--2---2---2---2---2---2--(0)-----------------------------------------------|
D|--0---0---0---0---0---0--(0)-----------------------------------------------|
A|--0---3---5---0---3---5--(5)-----------------------------------------------|
E|--5---0---0---5---0---0--(0)-----------------------------------------------|

Pushing forward through the night, aching just blow aside.

e|--0---0---0---0---0---0--(0)-----------------------------------------------|
B|--0---0---0---0---0---0--(0)-----------------------------------------------|
G|--2---2---2---2---2---2--(0)-----------------------------------------------|
D|--0---0---0---0---0---0--(0)-----------------------------------------------|
A|--0---3---5---0---3---5--(5)-----------------------------------------------|
E|--5---0---0---5---0---0--(0)-----------------------------------------------|

Aching just to blow aside, aching just to blow aside...

e|--0--(0)-------------------------------------------------------------------|
B|--0--(0)-------------------------------------------------------------------|
G|--2--(0)-------------------------------------------------------------------|
D|--0--(0)-------------------------------------------------------------------|
A|--5--(5)-------------------------------------------------------------------|
E|--0--(0)-------------------------------------------------------------------|


************************************

| /   slide up
| \   slide down
| h   hammer-on
| p   pull-off
| ~   vibrato
| +   harmonic
| x   Mute note
| b   Bend
| pb  Pre-bend
| br  Bend release
| pbr Pre-bend release
| brb Bend release bend

************************************

            
            
Suggest correction
Creating personal tab
Creating personal tab
You can edit any tab online and save it as your Personal.

You can edit, replace or remove any tab part or add personal notes – all changes will be seen only by you.

Personal tabs can be accessed anytime from any device, even offline.
Learn more »
Give kudos to tab author, rate the tab!
1 2 3 4 5
comments
print report bad tab
guest
Wanna post a correction for this tab? Suggest correction