Oops, an error
Loading. Please wait.

Cant Hold Back Bass Tab

39 views 1 this week
no commentswrite comment
1 2 3 4 5
please rate
add to favorites
launch autoscroll
font size
0
reset
guitar tuner
Autoscroll
slow
fast
+/-
esc
set tempo
stop
Help us to improve Ultimate-Guitar.com Take our survey!
×
Author
Difficulty
-------------------------------------------------------------------------------
                                        Can't Hold Back - Junkyard
-------------------------------------------------------------------------------

Tabbed by: ChrisT

From the album: Junkyard (1989)

Tuning: Standard

Intro (0:16)
G|------------------------------------------------------------|
D|------------------------------------------------------------|
A|------------------------------------------------------------|
E|---5-----5-----5-----5-----5-----5-----5-5-5-5-5-5-5-5-5----|

Verse 1                       Repeat x4
G|-------------------------------------|-------------------------------------|
D|o-----------------------------------o|o-----------------------------------o|
A|o----5------------------------------o|o----5---5-5-5-5-5-5-5-5-5-5-5-5-5--o|
E|---5---3-5-5-5-5-5-5-5-5-5-5-5-5-5---|---5---3-----------------------------|

Chorus
G|-------------------------------------|-----------------------------------|-R-|
D|o-----------------------------------o|-----------------------------------|-E-|
A|o----5------------------------------o|----5------------------------------|-S-|
E|---5---3-5-5-5-5-5-5-5-5-5-5-5-5-5---|--5---3-0-0-3-5-0-0-0-0-0-0-0-0-0--|-T-|

G|--------------------------------------|
D|o------------------------------------o|
A|o----5-------------------------------o|
E|---5---3-5-5-5-5-5-5-5-5-5-5-5-5-5----|

Verse 2                       Repeat x4
G|-------------------------------------|-------------------------------------|
D|o-----------------------------------o|o-----------------------------------o|
A|o----5------------------------------o|o----5---5-5-5-5-5-5-5-5-5-5-5-5-5--o|
E|---5---3-5-5-5-5-5-5-5-5-5-5-5-5-5---|---5---3-----------------------------|

Chorus
G|-------------------------------------|-----------------------------------|-R-|
D|o-----------------------------------o|-----------------------------------|-E-|
A|o----5------------------------------o|----5------------------------------|-S-|
E|---5---3-5-5-5-5-5-5-5-5-5-5-5-5-5---|--5---3-0-0-3-5-0-0-0-0-0-0-0-0-0--|-T-|

G|-------------------------------------|-------------------------------------|
D|o-----------------------------------o|o------------------------------------|
A|o----5------------------------------o|o----5---3-3-3-3-3-3-3-3-3-3-3-3-3---|
E|---5---3-5-5-5-5-5-5-5-5-5-5-5-5-5---|---5---3-----------------------------|

G|------------------------------------|--------------------------------------|
D|-----------------------------------o|o------------------------------------o|
A|----5---5-5-5-5-5-5-5-5-5-5-5-5-5--o|o--7-7-7-7-7-7-7-7-7-7-7-7-7-7-7-7---o|
E|--5---3-----------------------------|--------------------------------------|

Guitar solo                   Repeat x4
G|-------------------------------------|-------------------------------------|
D|o-----------------------------------o|o-----------------------------------o|
A|o----5------------------------------o|o----5---5-5-5-5-5-5-5-5-5-5-5-5-5--o|
E|---5---3-5-5-5-5-5-5-5-5-5-5-5-5-5---|---5---3-----------------------------|

G|-------------------------------------|-------------------------------------|
D|o-----------------------------------o|-------------------------------------|
A|o----5------------------------------o|-----5-------------------------------|
E|---5---3-5-5-5-5-5-5-5-5-5-5-5-5-5---|---5---3-0-0-3-5-0-0-0-0-0-0-0-0-0---|

G|-------------------------------------|-------------------------------------|
D|-------------------------------------|o-----------------------------------o|
A|-------------------------------------|o----5------------------------------o|
E|--------------------------------10\--|---5---3-5-5-5-5-5-5-5-5-5-5-5-5-5---|

Verse 3                       Repeat x4
G|-------------------------------------|-------------------------------------|
D|o-----------------------------------o|o-----------------------------------o|
A|o----5------------------------------o|o----5---5-5-5-5-5-5-5-5-5-5-5-5-5--o|
E|---5---3-5-5-5-5-5-5-5-5-5-5-5-5-5---|---5---3-----------------------------|

Chorus
G|-------------------------------------|-----------------------------------|-R-|
D|o-----------------------------------o|-----------------------------------|-E-|
A|o----5------------------------------o|----5------------------------------|-S-|
E|---5---3-5-5-5-5-5-5-5-5-5-5-5-5-5---|--5---3-0-0-3-5-0-0-0-0-0-0-0-0-0--|-T-|

G|-------------------------------------|-----------------------------------|-R-|
D|o-----------------------------------o|-----------------------------------|-E-|
A|o----5------------------------------o|----5------------------------------|-S-|
E|---5---3-5-5-5-5-5-5-5-5-5-5-5-5-5---|--5---3-0-0-3-5-0-0-0-0-0-0-0-0-0--|-T-|

G|------------------------------------------------------------------------|
D|------------------------------------------------------------------------|
A|-----5-------------5-------------5------------5-----------------5-------|
E|---5---3-5-5-5-5-5---3-5-5-5-5-5---3-5-5-5-5-5--3---0---------5---3-5---|



| /  slide up
| \  slide down
| h  hammer-on
| p  pull-off
| ~  vibrato
| +  harmonic
| x  Mute note
===============================================================================

Please rate or comment.......
Suggest correction
Give kudos to tab author, rate the tab!
1 2 3 4 5
comments
print report bad tab
guest
You may want to rate the tab now too:
select rating
Wanna post a correction for this tab? Suggest correction