Oops, an error
Loading. Please wait.

Hands Off Bass Tab

285 views 3 this week
no commentswrite comment
1 2 3 4 5
3 more votes to show rating
add to favorites
launch autoscroll
font size
0
reset
guitar tuner
Autoscroll
slow
fast
+/-
esc
set tempo
stop
Help us to improve Ultimate-Guitar.com Take our survey!
×
Author
Difficulty
novice
-------------------------------------------------------------------------------
                                        Hands Off - Junkyard
-------------------------------------------------------------------------------

Tabbed by: ChrisT

From the album: Junkyard (1989)

Tuning: Standard

Intro (0:22)
G|-------------------------------------------------------------|
D|---7---5-----------------------------------------------7-----|
A|-----------7---------------5---5-----------5-------7-9---9---|
E|---------------5---5---5-7---------0-2-3-------5-------------|

Verse 1                                     Repeat x3
G|--------------------------------------------------|
D|o------------------------------------------7-----o|
A|o--------------5---5-----------5-------7-9---9---o|
E|---5---5---5-7---------0-2-3-------5--------------|

G|--------------------------------------------------|
D|---------------------------------------7---5------|
A|---------------5---5-----------5------------------|
E|---5---5---5-7---------0-2-3-------5--------------|

Chorus
G|--------------------------------------------------|
D|---------------------5-7---5-------------7---5----|
A|-------------------7-----7------------------------|
E|---0-2-3-------5-------------3-------5------------|

G|----------------------------------------------------|
D|---------------------5-7---5-------------7---5------|
A|-------------------7-----7-------5--------------7---|
E|---0-2-3-------5-------------3-------5--------------|

G|-------------------------------------------------|
D|-------------------------------------------7-----|
A|---------------5---5-----------5-------7-9---9---|
E|---5---5---5-7---------0-2-3-------5-------------|

Verse 2                                       
G|--------------------------------------------------|
D|o------------------------------------------7-----o|
A|o--------------5---5-----------5-------7-9---9---o|
E|---5---5---5-7---------0-2-3-------5--------------|

Chorus
G|-------------------------------------------------|
D|---------------------5-7---5-------------7---5---|
A|-------------------7-----7-----------------------|
E|---0-2-3-------5-------------3-------5-----------|

G|----------------------------------------------------|
D|---------------------5-7---5-------------7---5------|
A|-------------------7-----7-------5--------------7---|
E|---0-2-3-------5-------------3-------5--------------|

Guitar solo                                Repeat x5
G|--------------------------------------------------|
D|o------------------------------------------7-----o|
A|o--------------5---5-----------5-------7-9---9---o|
E|---5---5---5-7---------0-2-3-------5--------------|

Verse 3                                    Repeat x3
G|--------------------------------------------------|
D|o------------------------------------------7-----o|
A|o--------------5---5-----------5-------7-9---9---o|
E|---5---5---5-7---------0-2-3-------5--------------|

G|------------------------------------------------|
D|---------------------------------------7---5----|
A|---------------5---5-----------5----------------|
E|---5---5---5-7---------0-2-3-------5------------|

Chorus
G|-------------------------------------------------|
D|---------------------5-7---5-------------7---5---|
A|-------------------7-----7-----------------------|
E|---0-2-3-------5-------------3-------5-----------|

G|---------------------------------------------------------------------------|
D|-------------------7---5-------------------5-7---5---------------5-7---5---|
A|---------------------------------5-------7-----7-------5-------7-----7-----|
E|---0-2-3-------5---------0-2-3-------5-------------3-------5---------------|

G|---------------------------------------------------------------|
D|---------------7---5-------------------5-7---5-----------------|
A|-------5---------------------5-------7-----7-------5-----------|
E|---3-------5---------0-2-3-------5-------------3-------5-------|



| /  slide up
| \  slide down
| h  hammer-on
| p  pull-off
| ~  vibrato
| +  harmonic
| x  Mute note
===============================================================================

Please rate or comment........
Suggest correction
Give kudos to tab author, rate the tab!
1 2 3 4 5
comments
print report bad tab
guest
You may want to rate the tab now too:
select rating
Wanna post a correction for this tab? Suggest correction