Oops, an error
Loading. Please wait.

Life Sentence Bass Tab

101 views 1 this week
no commentswrite comment
1 2 3 4 5
please rate
add to favorites
launch autoscroll
font size
0
reset
guitar tuner
Autoscroll
slow
fast
+/-
esc
set tempo
stop
Help us to improve Ultimate-Guitar.com Take our survey!
×
Author
Difficulty
-------------------------------------------------------------------------------
                                         Life Sentence - Junkyard
-------------------------------------------------------------------------------

Tabbed by: ChrisT

From the album: Junkyard (1989)

Tuning: Standard

Intro
G|--------------------------------------------------|
D|--------------------------------------------------|
A|--------------------------------------------------|
E|--3-3-5---5-5-3-0-----0-----0-----3-3-5---5-5-3---|

G|--------------------------------------------------------------------------|
D|o------------------5-----------------5-----------------5-----------------o|
A|o--------------7-5---------------7-5---------------7-5-------------------o|
E|---0--0-0--0-0-------0--0-0--0-0-------0--0-0--0-0-------3-3-5---5-5-3----|

Verse 1 - Sounds good with above riff but I think what is played is this...
G|---------------------------------------------------------------------------|
D|o-------------------------------------------------------------------------o|
A|o------------------5h7-----------------5h7--------------------------------o|
E|---0--0-0--0-0--0------0--0-0--0-0--0------0--0-0--0-0--0-3-3-5---5-5-3----|

Chorus
G|------------------------------------------------------------|
D|------------------------------------------------------------|
A|--3-3-3---2-3-4-5-5-5---4-5-6-7-7-7---5-7-5-7-7-7---0-1-2---|
E|------------------------------------------------------------|

G|--------------------------------------------------------------|
D|--------------------------------------------------------------|
A|--3-3-3---2-3-4-5-5-5---4-5-6---------------------------------|
E|------------------------------5-5-5---4-5-6-7-7-7-7-7-5---3---|

G|--------------------------------------------------------------------------|
D|o------------------5-----------------5-----------------5-----------------o|
A|o--------------7-5---------------7-5---------------7-5-------------------o|
E|---0--0-0--0-0-------0--0-0--0-0-------0--0-0--0-0-------3-3-5---5-5-3----|

Verse 2
G|--------------------------------------------------------------------------|
D|o------------------------------------------------------------------------o|
A|o------------------5h7-----------------5h7-------------------------------o|
E|---0--0-0--0-0--0------0--0-0--0-0--0------0--0-0--0-0--0-3-3-5---5-5-3---|

Chorus
G|------------------------------------------------------------|
D|------------------------------------------------------------|
A|--3-3-3---2-3-4-5-5-5---4-5-6-7-7-7---5-7-5-7-7-7---0-1-2---|
E|------------------------------------------------------------|

G|--------------------------------------------------------------|
D|--------------------------------------------------------------|
A|--3-3-3---2-3-4-5-5-5---4-5-6---------------------------------|
E|------------------------------5-5-5---4-5-6-7-7-7-7-7-5---3---|

Guitar solo
G|--------------------------------------------------------------------------|
D|o------------------5-----------------5-----------------5-----------------o|
A|o--------------7-5---------------7-5---------------7-5-------------------o|
E|---0--0-0--0-0-------0--0-0--0-0-------0--0-0--0-0-------3-3-5---5-5-3----|

Bridge                Reapeat x7
G|------------------------------|-------------------|
D|o----------------------------o|-------------------|
A|o----------------------------o|-------------------|
E|---0--0--0-0-0--0--0-0--0-0---|---3-3-5---5-5-3---|

                       Repeat x3
G|------------------------------|-------------------|
D|o----------------------------o|-------------------|
A|o----------------------------o|-------------------|
E|---0--0--0-0-0--0--0-0--0-0---|---3-3-5---5-5-3---|

Chorus
G|------------------------------------------------------------|
D|------------------------------------------------------------|
A|--3-3-3---2-3-4-5-5-5---4-5-6-7-7-7---5-7-5-7-7-7---0-1-2---|
E|------------------------------------------------------------|

G|---------------------------------------------------------------|
D|---------------------------------------------------------------|
A|--3-3-3---2-3-4-5-5-5---4-5-6----------------------------------|
E|------------------------------5-5-5---4-5-6-7-7-7-7-7-5---3----|

                                                                   1st time only
G|----------------------------------------------------------------|------------|
D|o------------------5-----------------5-----------------5--------|-----------o|
A|o--------------7-5---------------7-5---------------7-5----------|-----------o|
E|---0--0-0--0-0-------0--0-0--0-0-------0--0-0--0-0-------3-3-5--|---5-5-3----|

G|---------------------------------------|
D|---------------------------------------|
A|---------------------------------------|
E|----3-3-5-----3-3-5---5---5---3---0----|



| /  slide up
| \  slide down
| h  hammer-on
| p  pull-off
| ~  vibrato
| +  harmonic
| x  Mute note
===============================================================================

As always, Please rate or comment......
Suggest correction
What's this?
You can suggest a correction to this tab. Community and Mods will review your correction and vote to approve or reject it.
comments
We did not receive enough feedback on this tab! Please rate:
print report bad tab
1 2 3 4 5
guest
You may want to rate the tab now too:
select rating
Please do not post tabs as comments. Select "correction" instead!