Oops, an error
Loading. Please wait.

Long Way Home Bass Tab

62 views 1 this week
no commentswrite comment
1 2 3 4 5
please rate
add to favorites
launch autoscroll
font size
0
reset
guitar tuner
Autoscroll
slow
fast
+/-
esc
set tempo
stop
Help us to improve Ultimate-Guitar.com Take our survey!
×
Author
Difficulty
---------------------------------------------------------------------------------
                                             Long Way Home - Junkyard
---------------------------------------------------------------------------------

Tabbed by: ChrisT

From the album: Junkyard (1989)

Tuning: Standard

Intro                                                                Repeat x4
G|----------------------------------------------|-----------------------------|
D|----------------------------------------------|o---------------------------o|
A|--2-2-2-2-2-2-2-2-2-2-2-4-5-5-5-5-5-5-5-------|o--------------------0-1-2--o|
E|-------------------------------------------5--|---0---0-0---3---------------|

Verse 1                Repeat x8
G|------------------------------|
D|o----------------------------o|
A|o--------------------0-1-2---o|
E|---0---0-0---3----------------|

Chorus
G|------------------------------------------------------------------------------|
D|------------------------------------------------------------------------------|
A|-----------------------------------------------------------------------0-1-2--|
E|--5-5-5-3h5-5-5-3h5-5-5-3h5-5-5-3h5-5-5-3h5-5-5--3---0---0-0---3--------------|

G|-----------------------------------------------------------------------|
D|-----------------------------------------------------------------------|
A|---------------------0-1-2-2-2-2-2-2-2-2-2-2-2-4-5-5-5-5-5-5-5---------|
E|---0---0-0---3-----------------------------------------------------5---|

                       Repeat x4
G|------------------------------|
D|o----------------------------o|
A|o--------------------0-1-2---o|
E|---0---0-0---3----------------|

Verse 2                Repeat x8
G|------------------------------|
D|o----------------------------o|
A|o--------------------0-1-2---o|
E|---0---0-0---3----------------|

Chorus
G|------------------------------------------------------------------------------|
D|------------------------------------------------------------------------------|
A|-----------------------------------------------------------------------0-1-2--|
E|--5-5-5-3h5-5-5-3h5-5-5-3h5-5-5-3h5-5-5-3h5-5-5--3---0---0-0---3--------------|

G|-----------------------------------------------------------------------|
D|-----------------------------------------------------------------------|
A|---------------------0-1-2-2-2-2-2-2-2-2-2-2-2-4-5-5-5-5-5-5-5---------|
E|---0---0-0---3-----------------------------------------------------5---|

                       Repeat x4
G|------------------------------|
D|o----------------------------o|
A|o--------------------0-1-2---o|
E|---0---0-0---3----------------|

Guitar solo
G|------------------------------------------------------------------------------|
D|------------------------------------------------------------------------------|
A|-----------------------------------------------------------------------0-1-2--|
E|--5-5-5-3h5-5-5-3h5-5-5-3h5-5-5-3h5-5-5-3h5-5-5--3---0---0-0---3--------------|

G|-----------------------------------------------------------------------|
D|-----------------------------------------------------------------------|
A|---------------------0-1-2-2-2-2-2-2-2-2-2-2-2-4-5-5-5-5-5-5-5---------|
E|---0---0-0---3-----------------------------------------------------5---|


G|------------------------------|
D|o----------------------------o|
A|o--------------------0-1-2---o|
E|---0---0-0---3----------------|

Verse 3                Repeat x8
G|------------------------------|
D|o----------------------------o|
A|o--------------------0-1-2---o|
E|---0---0-0---3----------------|

Chorus
G|------------------------------------------------------------------------------|
D|------------------------------------------------------------------------------|
A|-----------------------------------------------------------------------0-1-2--|
E|--5-5-5-3h5-5-5-3h5-5-5-3h5-5-5-3h5-5-5-3h5-5-5--3---0---0-0---3--------------|

G|-----------------------------------------------------------------------|
D|-----------------------------------------------------------------------|
A|---------------------0-1-2-2-2-2-2-2-2-2-2-2-2-4-5-5-5-5-5-5-5---------|
E|---0---0-0---3-----------------------------------------------------5---|

                       Repeat x4                     Repeat x4
G|------------------------------|-----------------------------|-------|
D|o----------------------------o|o---------------------------o|-------|
A|o--------------------0-1-2---o|o---------------------------o|-------|
E|---0---0-0---3----------------|---0-0-0-2-2-2-3-3-3-5-5-7---|---0---|



| /  slide up
| \  slide down
| h  hammer-on
| p  pull-off
| ~  vibrato
| +  harmonic
| x  Mute note
===============================================================================
Suggest correction
Give kudos to tab author, rate the tab!
1 2 3 4 5
comments
print report bad tab
guest
You may want to rate the tab now too:
select rating
Wanna post a correction for this tab? Suggest correction