Oops, an error
Loading. Please wait.

Pistolero tab

version 1
version 1

Whole song

26,679 views 33 this week
3 commentsread comments
1 2 3 4 5
x 12
add to favorites
×
Save as Personal and add changes to this tab that will be seen only by you. Learn more ›
×
You can save this tab as Personal to edit and correct it or add notes. All changes will be seen only by you. Learn more »
launch autoscroll
font size
0
reset
how to read this tab
guitar tuner
edit
Autoscroll
slow
fast
+/-
esc
set tempo
stop
Author
-------------------------------------------------------------------------------
                             PISTOLERO - Juno Reactor
-------------------------------------------------------------------------------
This song is off the movie soundtack for "Once Upon A Time In Mexico" and Juno
Reactor's 2000 single "Pistolero".

Tabbed by: guitarfark
Email: stancsmith@gmail.com

Tuning: Standard

Intro/Theme

e|---------------------------------------------------------------------------|
B|---------------------------------------------------------------------------|
G|---------------------------------------------------------------------------|
D|-6-----2-2--------------0--2--3-2-----------------------0--2--3------------|
A|--------------------------------------2-2----------------------------------|
E|-----------------(0)-------------------------------------------------------|

e|---------------------------------------------------------------------------|
B|---------------------------------------------------------------------------|
G|---------------------------------------------------------------------------|
D|---------------------------------------------------------------------------|
A|-5-----320------0--2-2-----------------------------------------------------|
E|-------------4-------------0-0---------------------------------------------|

Solo

e|---------------------------------------------------------------------------|
B|---------------------------------------------------------------------------|
G|-----2---4p2---5p2-4p2---4p2-----0-----0-----------------------------------|
D|-2h3---3-----3---------3-----3-0---0-2---0-2-3-0-0-3-0---2-0---0-----------|
A|-------------------------------------------------------4-----4-------------|
E|---------------------------------------------------------------------------|

            
            
Suggest correction
Creating personal tab
Creating personal tab
You can edit any tab online and save it as your Personal.

You can edit, replace or remove any tab part or add personal notes – all changes will be seen only by you.

Personal tabs can be accessed anytime from any device, even offline.
Learn more »
comments
print report bad tab
3 comments total.
0 reply
Bazzar0 10 Apr 18, 2009 03:04 PM

i think the last numbers of the firat line are this :
e|---------------------------------------------------------------------------|
B|---------------------------------------------------------------------------|
G|---------------------------------------------------------------------------|
D|-6-----2-2--------------0--2--3-2-------------------------------------|
A|--------------------------------------2-2-------*-0-2-3-*---------------------|
E|-----------------(0)-------------------------------------------------------|

+2 reply
Aznargo 30 Jan 19, 2010 10:44 AM

Bazzar0's right; that -0-2-3- line is on A. Otherwise, good tab

0 reply
symygy 18 Jun 10, 2017 06:30 AM

In my opinion:
e|---------------------------------------------------------------------------|
B|---------------------------------------------------------------------------|
G|---------------------------------------------------------------------------|
D|-6-----2-2--------------0--2--3-2------------------------------------------|
A|--------------------------------------2-2------0-2-3-5--3-2-0-----2-2------|
E|-----------------(0)-----------------------(0)----------------4-4-----(0)--|

guest
You may want to rate the tab now too:
select rating
Wanna post a correction for this tab? Suggest correction