Oops, an error
Loading. Please wait.

Saeein Tab

version 2
version 2

Solo

Whole song

4 views 1 this week
no commentswrite comment
1 2 3 4 5
3 more votes to show rating
add to favorites
launch autoscroll
font size
0
reset
how to read this tab
guitar tuner
Autoscroll
slow
fast
+/-
esc
set tempo
stop
Help us to improve Ultimate-Guitar.com Take our survey!
×
Author
Difficulty
intermediate
Saeen by Junoon
Spent SOME considerable time on this!
One of my absolute favourites

[Solo]

e|---------------------------------------------------------------------------|
B|---------3s5-6-6p5s3-3s5---------------------------------------------------|
G|--3-2-0h2------------------------------------------------------------------|
D|---------------------------------------------------------------------------|
A|---------------------------------------------------------------------------|
E|---------------------------------------------------------------------------|

e|---------------------------------------------------------------------------|
B|--5s3-5s6-5s3-5s3-5s6-5s3-2------------------------------------------------|
G|---------------------------------------------------------------------------|
D|---------------------------------------------------------------------------|
A|---------------------------------------------------------------------------|
E|---------------------------------------------------------------------------|

This part goes pretty fast
e|---------------------------------------------------------------------------|
B|---------------------------------------------------------------------------|
G|--2h3-0h2------------------------------------------------------------------|
D|----------3h5-2h3-0h2------------------------------------------------------|
A|----------------------4h5-4s1-0-0------------------------------------------|
E|---------------------------------------------------------------------------|

e|---------------------------------------------------------------------------|
B|--10-10-8-11-11-8-10-8-8s6-6--10-10-8-11-11-8-10---------------------------|
G|---------------------------------------------------------------------------|
D|---------------------------------------------------------------------------|
A|---------------------------------------------------------------------------|
E|---------------------------------------------------------------------------|

e|--17-17-15-18-18-15-17-15-15s13--17-17-15-18-18-15-17----------------------|
B|---------------------------------------------------------------------------|
G|---------------------------------------------------------------------------|
D|---------------------------------------------------------------------------|
A|---------------------------------------------------------------------------|
E|---------------------------------------------------------------------------|

e|--17s18-17s15s17-15s12s15-15s12s(17)---------------------------------------|
B|---------------------------------------------------------------------------|
G|---------------------------------------------------------------------------|
D|---------------------------------------------------------------------------|
A|---------------------------------------------------------------------------|
E|---------------------------------------------------------------------------|


e|--17s18-17s15s17-15s12s15-15s12s(17)---------------------------------------|
B|---------------------------------------------------------------------------|
G|---------------------------------------------------------------------------|
D|---------------------------------------------------------------------------|
A|---------------------------------------------------------------------------|
E|---------------------------------------------------------------------------|

e|---------------------------------------------------------------------------|
B|--6-5-8-5-6-5-3-2-2--6-5-8-5-5s10------------------------------------------|
G|---------------------------------------------------------------------------|
D|---------------------------------------------------------------------------|
A|---------------------------------------------------------------------------|
E|---------------------------------------------------------------------------|

e|--10s13-12-15-12-13-12-10s9-9--13-12-15-12~17~-----------------------------|
B|---------------------------------------------------------------------------|
G|---------------------------------------------------------------------------|
D|---------------------------------------------------------------------------|
A|---------------------------------------------------------------------------|
E|---------------------------------------------------------------------------|


Tabbed by Insha ur Rehman
www.superinsha.webs.com
************************************

| p  Pull-off
| h  Hammer-on
| ~  Vibrato
| s  slide

************************************
Suggest correction
Give kudos to tab author, rate the tab!
1 2 3 4 5
comments
print report bad tab
guest
You may want to rate the tab now too:
select rating
Wanna post a correction for this tab? Suggest correction