Oops, an error
Loading. Please wait.

Whats Golden bass

version 1
version 1

Whole song

4,714 views 1 this week
3 commentsread comments
1 2 3 4 5
x 6
add to favorites
×
Save as Personal and add changes to this tab that will be seen only by you. Learn more ›
×
You can save this tab as Personal to edit and correct it or add notes. All changes will be seen only by you. Learn more »
launch autoscroll
font size
0
reset
guitar tuner
edit
Autoscroll
slow
fast
+/-
esc
set tempo
stop
Difficulty
intermediate
Band: Jurassic 5
Title: What's Golden
Author: Cameron Isaac

I hope this is right.

G|---------------------|
D|---------------------|
A|---------------------|
E|-7-8-6-6-4-4-6-6-1-1-|

G|--------------------------|
D|--------------------------|
A|-2-3----2-0-0-------------|
E|------1-------4-4-6-6-1-1-|

            
            
Suggest correction
Creating personal tab
Creating personal tab
You can edit any tab online and save it as your Personal.

You can edit, replace or remove any tab part or add personal notes – all changes will be seen only by you.

Personal tabs can be accessed anytime from any device, even offline.
Learn more »
comments
print report bad tab
3 comments total.
0 reply
poot 41 Sep 01, 2006 02:00 PM

wow no jus a short bad tab get a real job damn kids and their mtv
but i love j5 good taste.

+2 reply
bropark08 135 Sep 08, 2006 01:37 PM

if you want to tab like this, do it right. it should go:

G|---------------------|
D|---------------------|
A|---------------------|
E|-7-8-6-6-4-4-6-6-1-1-|

G|--------------------------|
D|--------------------------|
A|-2-3----2-1-1-------------|
E|------1-------4-4-6-6-1-1-|

0 reply
JimmyPageJr71 10 Jan 17, 2007 12:05 PM

this sucks

guest
Wanna post a correction for this tab? Suggest correction