Oops, an error
Loading. Please wait.

Posero Tab

7 views 1 this week
no commentswrite comment
1 2 3 4 5
3 more votes to show rating
add to favorites
launch autoscroll
font size
0
reset
how to read this tab
guitar tuner
Autoscroll
slow
fast
+/-
esc
set tempo
stop
Help us to improve Ultimate-Guitar.com Take our survey!
×
  Esta es una corrección de la tablatura anterior que estaba
  toda mal.

  Intro: Parte con estas notas LA# FA# DO# y SOL#
            y este punteo:

  E--10-9-9--10-9-9--10-9--10-9-9--10-9-9--10-9-|
  B---------------------------------------------|
  G---------------------------------------------|
  D---------------------------------------------|
  A---------------------------------------------|
  E---------------------------------------------|

  Toda la canción va con las notas del comienzo

  LA#                     FA#                 DO#                 SOL#
  Ya estoy cansado de que seas un posero de mierda disfrasado de punk
  LA#                      FA#                        DO#                     SOL#
  Usas unas cadenas y unos gorros hacia arriba con bototos con cordones de color
  Y unos morrales llenos de iniciales marcando tu revelación
  Uoo uoo uoo uoo uooooo
  Eres un posero de mierda que ni siquiera sabes lo que  es el punk
  Déjate de fingir farsante de mierda ni siquiera sabes hardcorear
  No conocí ni las tocatas ni las peleas callejeras cuando vamos a ver un grupo tocar
  En las fiestas bailas tecno con tus amigos bacilai hip-hop
  Y hasta escuchai a los Vengaboys

   Así va toda la canción y termina con este punteo:

  E--10-9-10-6-6-7--10-9-10-5-5-6--10-9-10-6-6-7-
  B----------------------------------------------
  G----------------------------------------------
  D----------------------------------------------
  A----------------------------------------------
  E----------------------------------------------
                                                     x4
  E--10-9-10-12-10-9-10-9-10-12-10-9-10-9-10--|--14-12-10--|
  B---------------------------------------------------------
  G---------------------------------------------------------
  D---------------------------------------------------------
  A---------------------------------------------------------
  E---------------------------------------------------------

  E--9-10-9-7-7-7-7-7-7--10-9-9-9-9-9--7-7-7-7-7-7--10-9-9-9-9-9-
  B--------------------------------------------------------------
  G--------------------------------------------------------------
  D--------------------------------------------------------------
  A--------------------------------------------------------------
  E--------------------------------------------------------------

  E--14-12-10-14-12-10-14-12-10-9-10-9-7---|
  B----------------------------------------|
  G----------------------------------------|
  D----------------------------------------|
  A----------------------------------------|
  E----------------------------------------|

  Bueno eso es todo espero que les sirva

                      ¡CHAOOOOOOOO!
Suggest correction
Give kudos to tab author, rate the tab!
1 2 3 4 5
comments
print report bad tab
guest
You may want to rate the tab now too:
select rating
Wanna post a correction for this tab? Suggest correction