Oops, an error
Loading. Please wait.

Stars In Their Eyes bass

version 1
version 1

Whole song

Interactive

4,392 views 1 this week
no commentswrite comment
1 2 3 4 5
1 last vote to show rating
add to favorites
×
Save as Personal and add changes to this tab that will be seen only by you. Learn more ›
×
You can save this tab as Personal to edit and correct it or add notes. All changes will be seen only by you. Learn more »
launch autoscroll
font size
0
reset
guitar tuner
edit
Autoscroll
slow
fast
+/-
esc
set tempo
stop
Author
Difficulty
Just Jack "Starz In Their Eyes"

Transcribed by Robert Quick, (Asomodai)

I'll be honest, i dont like alot of the song or lyrics, But the bassline is very very
Catchy, took me about 10 minutes to get down its actually a pretty simple line, Just 
on the exact timing.


Intro/Break Riff

------------------------------|
------------------------------|
-6---5------------------------|
--------6---------------------|

Main Line

---------8/10-8---------------|
-------8--------10-8----------|
-6-(6)---------------5--------|
-----------------------6------|

There are lots of little embellishments along the main line. One of the main ones being this.

---------8/10-8---------------|
-------8--------10-8----------|
-6-(6)---------------5-6-5----|
---------------------------6--|

Or

---------8/10-8----------7----|
-------8--------10-8---7------|
-6-(6)---------------5--------|
---------------------------6--|

            
            
Suggest correction
Creating personal tab
Creating personal tab
You can edit any tab online and save it as your Personal.

You can edit, replace or remove any tab part or add personal notes – all changes will be seen only by you.

Personal tabs can be accessed anytime from any device, even offline.
Learn more »
Give kudos to tab author, rate the tab!
1 2 3 4 5
comments
print report bad tab
guest
You may want to rate the tab now too:
select rating
Wanna post a correction for this tab? Suggest correction