Oops, an error
Loading. Please wait.

Stars In Their Eyes bass

version 2
version 2

Whole song

Interactive

610 views 1 this week
1 commentread comment
1 2 3 4 5
2 more votes to show rating
add to favorites
×
Save as Personal and add changes to this tab that will be seen only by you. Learn more ›
×
You can save this tab as Personal to edit and correct it or add notes. All changes will be seen only by you. Learn more »
launch autoscroll
font size
0
reset
guitar tuner
edit
Autoscroll
slow
fast
+/-
esc
set tempo
stop
Difficulty
 verse
---------------------9--------------|
---------15-14-12------------8---8--|
--6-6-/------------5----------------|
---------------------------6---6----|

chours
------------------------------------|
------------------------------------|
---6-6-6--5-5-----------------------|
---------------6-6------------------|

break down

------------------------------------|
------------------------------------|
------------------------------------|
-----6-6----6-6----6-6----6-6-------|

the hole song is pritty easy but very funky !! enjoy
Suggest correction
Creating personal tab
Creating personal tab
You can edit any tab online and save it as your Personal.

You can edit, replace or remove any tab part or add personal notes – all changes will be seen only by you.

Personal tabs can be accessed anytime from any device, even offline.
Learn more »
Give kudos to tab author, rate the tab!
1 2 3 4 5
comments
print report bad tab
1 comment total.
0 reply
el_wOoKiE 10 Mar 29, 2007 11:51 AM

I'm thinking the chorus (the bit you called the verse!) should be:

----------------------8--------------|G
---------15-13-12----8-----8---------|D
--6-6-/------------6------7----------|A
------------------------6------------|E

and then varies along those lines. I can't be arsed to do the whole thing :)
Ear training, people!

guest
Wanna post a correction for this tab? Suggest correction