Oops, an error
Loading. Please wait.

On My Own tab

147 views 1 this week
no commentswrite comment
1 2 3 4 5
2 more votes to show rating
add to favorites
×
Save as Personal and add changes to this tab that will be seen only by you. Learn more ›
×
You can save this tab as Personal to edit and correct it or add notes. All changes will be seen only by you. Learn more »
launch autoscroll
font size
0
reset
how to read this tab
guitar tuner
edit
Autoscroll
slow
fast
+/-
esc
set tempo
stop
Tabbed by: Joshua Garcia (joshuag523@aol.com)

Tabs for the song: On My Own by Just Surrender
Please rate and let me know if you have any corrections. Thank you.


Tuning: Drop C# (C# G# C# F# A# D#)


Intro
Guitar 1:
D#||-----------------|
A#||-----------------|
F#||-----------------|
C#||--2-2-2----------|
G#||--2-2-2----------|
C#||--2-2-2----------|


Guitar 2:
D#||-----------------|
A#||-----------------|
F#||-----------------|
C#||----------2-2-2--|
G#||----------2-2-2--|
C#||----------2-2-2--|



Guitar 1/2:
D#||---------------------------------|
A#||--8-7---8-7---8-7---8-7---8-7----|
F#||------9-----9-----9-----9-----9--|
C#||---------------------------------|
G#||---------------------------------|
C#||---------------------------------|


Guitar 1:
D#||----------------------------------------|
A#||--8-7---8-7---8-7---8-7---8-7---8-7-----|
F#||------9-----9-----9-----9-----9-----9~--|
C#||----------------------------------------|
G#||----------------------------------------|
C#||----------------------------------------|


Guitar 2:
D#||--7------7------7------7------7------7--------|
A#||----10-8---10-8---10-8---10-8---10-8---10-8~--|
F#||----------------------------------------------|
C#||----------------------------------------------|
G#||----------------------------------------------|
C#||----------------------------------------------|


Guitar 3 (dub):
D#||---------------------------------|
A#||---------------------------------|
F#||---------------------------------|
C#||--2-2-2---2-2-2-----2-----2-2-2--|
G#||--2-2-2---2-2-2-----2-----2-2-2--|
C#||--2-2-2---2-2-2-----2-----2-2-2--|



Pre-Verse
Guitar 2:
D#||-------------------------|
A#||-------------------------|
F#||-------------------------|
C#||--------------5~-----7~--| x2
G#||--2~----------3~-----5~--|
C#||--2~---------------------|



Guitar 1:
D#||--------------------------------------------------|
A#||--8~--88--8--8--8--8--8--8--7--7--7--7--88--7--8--|
F#||--9~--99--9--9--9--9--9--9--9--9--9--9--99--9--9--|
C#||--------------------------------------------------|
G#||--------------------------------------------------|
C#||--------------------------------------------------|


D#||----------------------------------------------------|
A#||--8~--88--8--8--8--8--8--8--7--7--7--7--88--7--888--|
F#||--9~--99--9--9--9--9--9--9--9--9--9--9--99--9--999--|
C#||----------------------------------------------------|
G#||----------------------------------------------------|
C#||----------------------------------------------------|


Guitar 2:
D#||--------------------------------------------|
A#||--------------------------------------------|
F#||--9--9------7-5--5------4-5--5------9-7--7--|
C#||--9--9------7-5--5------4-5--5------9-7--7--|
G#||--7--7------5-3--3------2-3--3------7-5--5--|
C#||--------------------------------------------|


D#||---------------------------------------------------|
A#||---------------------------------------------------|
F#||--9--9------7-5--5------4-5--5------9-7--7------7--|
C#||--9--9------7-5--5------4-5--5------9-7--7------7--|
G#||--7--7------5-3--3------2-3--3------7-5--5------5--|
C#||---------------------------------------------------|



Pre-Chorus
Guitar 1/2:
D#||-----------------------------|
A#||-----------------------------|
F#||--5~----------------------7--|
C#||--5~----------------------7--|
G#||--3~------5-5-5-5-5-5-5-5-5--|
C#||-----------------------------|
              . . . . . . . .


Guitar 1 (Harmonic):
D#||-------|
A#||-------|
F#||-------|
C#||-------|
G#||--'9~--|
C#||-------|



Chorus
Guitar 1:
D#||-------------------------------------|-----------------------------7------|
A#||--8~---------8-------8-------10-8-7--|--8~---------8-------8---------8~---|
F#||--------7-9------7-9-----7-9---------|--------7-9------7-9-----7-9--------|
C#||------9--------9-------9-------------|------9--------9-------9------------|
G#||-------------------------------------|------------------------------------|
C#||-------------------------------------|------------------------------------|


D#||-------------------------------------|-----------------------------7------|
A#||--8~---------8-------8-------10-8-7--|--8~---------8-------8---------8-7--|
F#||--------7-9------7-9-----7-9---------|--------7-9------7-9-----7-9--------|
C#||------9--------9-------9-------------|------9--------9-------9------------|
G#||-------------------------------------|------------------------------------|
C#||-------------------------------------|------------------------------------|


Guitar 2:
D#||---------------------------------------------|---------------------------------------------|
A#||---------------------------------------------|---------------------------------------------|
F#||---------------------------------------------|--5--55--555--555--555-7--77--777--777--777--|
C#||--2--22--222--222--222-0--00--000--000--000--|--5--55--555--555--555-7--77--777--777--777--|
G#||--2--22--222--222--222-0--00--000--000--000--|--3--33--333--333--333-5--55--555--555--555--|
C#||--2--22--222--222--222-0--00--000--000--000--|---------------------------------------------|



Guitar 1:
D#||------------------------------------|--------------------------------------|
A#||--0~--3-5-0-3-5-0-5-7-0-7-8-0-8-10--|--0~--3-5-0-3-5-0-7---8-7---8-7-------|
F#||------------------------------------|--------------------9-----9-----9-9~--|
C#||------------------------------------|--------------------------------------|
G#||------------------------------------|--------------------------------------|
C#||------------------------------------|--------------------------------------|


Guitar 2:
D#||---------------------------------------------|
A#||---------------------------------------------|
F#||--5--55--555--555--555-7--77--777--777--777--|
C#||--5--55--555--555--555-7--77--777--777--777--|
G#||--3--33--333--333--333-5--55--555--555--555--|
C#||---------------------------------------------|



Verse
Guitar 1/2:
D#||-------------------------------------------------------|
A#||-------------------------------------------------------|
F#||-------------------------------------------------------|
C#||--------------------------2~--22--2--2--2/4-----5-4----|
G#||--2~--22--2--2--2--2--22--3~--33--3--3--3/5-5-5-----5--|
C#||--2~--22--2--2--2--2--22-------------------------------|
                                                . .

D#||-------------------------------------------------------|
A#||-------------------------------------------------------|
F#||------------------------------------------------4------|
C#||--------------------------2~--22--2--2--2/4-------5-4--|
G#||--2~--22--2--2--2--2--22--3~--33--3--3--3/5-5-5--------|
C#||--2~--22--2--2--2--2--22-------------------------------|
                                                . .


Guitar 1:
D#||--7~--7-7-7-8-8-7-7-7-7-8-8-7-7-7--|
A#||-----------------------------------|
F#||-----------------------------------|
C#||-----------------------------------| x4
G#||-----------------------------------|
C#||-----------------------------------|


Guitar 2:
D#||---------------------------------------------|
A#||---------------------------------------------|
F#||----------------------5~-55~-555~-777~-777~--|
C#||--2--2-2---2---2--22--5~-55~-555~-777~-777~--|
G#||--2--2-2---2---2--22--3~-33~-333~-555~-555~--|
C#||--2--2-2---2---2--22-------------------------|



Pre-Chorus
Guitar 1/2:
D#||-----------------------------------|
A#||-----------------------------------|
F#||--5--55--555--555--555--777777777--|
C#||--5--55--555--555--555--777777777--|
G#||--3--33--333--333--333--555555555--|
C#||-----------------------------------|



Chorus
Guitar 1:
D#||-------------------------------------|-----------------------------7------|
A#||--8~---------8-------8-------10-8-7--|--8~---------8-------8---------8~---|
F#||--------7-9------7-9-----7-9---------|--------7-9------7-9-----7-9--------|
C#||------9--------9-------9-------------|------9--------9-------9------------|
G#||-------------------------------------|------------------------------------|
C#||-------------------------------------|------------------------------------|


D#||-------------------------------------|-----------------------------7------|
A#||--8~---------8-------8-------10-8-7--|--8~---------8-------8---------8-7--|
F#||--------7-9------7-9-----7-9---------|--------7-9------7-9-----7-9--------|
C#||------9--------9-------9-------------|------9--------9-------9------------|
G#||-------------------------------------|------------------------------------|
C#||-------------------------------------|------------------------------------|


Guitar 2:
D#||---------------------------------------------|---------------------------------------------|
A#||---------------------------------------------|---------------------------------------------|
F#||---------------------------------------------|--5--55--555--555--555-7--77--777--777--777--|
C#||--2--22--222--222--222-0--00--000--000--000--|--5--55--555--555--555-7--77--777--777--777--|
G#||--2--22--222--222--222-0--00--000--000--000--|--3--33--333--333--333-5--55--555--555--555--|
C#||--2--22--222--222--222-0--00--000--000--000--|---------------------------------------------|



Guitar 1:
D#||------------------------------------|------------------------------------|
A#||--0~--3-5-0-3-5-0-5-7-0-7-8-0-8-10--|--0~--3-5-0-3-5-0-5-7-0-7-8-0-8-10--|
F#||------------------------------------|------------------------------------|
C#||------------------------------------|------------------------------------|
G#||------------------------------------|------------------------------------|
C#||------------------------------------|------------------------------------|


D#||------------------------------------|--------------------------------------|
A#||--0~--3-5-0-3-5-0-5-7-0-7-8-0-8-10--|--0~--3-5-0-3-5-0-7---8-7---8-7-------|
F#||------------------------------------|--------------------9-----9-----9-9~--|
C#||------------------------------------|--------------------------------------|
G#||------------------------------------|--------------------------------------|
C#||------------------------------------|--------------------------------------|


Guitar 2:
D#||---------------------------------------------------------------------------------------------|
A#||---------------------------------------------------------------------------------------------|
F#||--5--55--555--555--555-7--77--777--777--777----------------------------------------------5~--|
C#||--5--55--555--555--555-7--77--777--777--777--2--22--222--222--222--0--00--000--000--000--5~--|
G#||--3--33--333--333--333-5--55--555--555--555--2--22--222--222--222--0--00--000--000--000--3~--|
C#||---------------------------------------------2--22--222--222--222--0--00--000--000--000------|



Interlude
Guitar 1:
D#||---------------------------------------------------|
A#||--10-12-------10-12-------10-12-------10-12--------|
F#||--------11-12-------11-12-------11-12-------11-12--|
C#||---------------------------------------------------| x2
G#||---------------------------------------------------|
C#||---------------------------------------------------|


Guitar 2:
D#||-----------------------------------|
A#||--7-8-----7-8-----7-8-----7-8------|
F#||------7-9-----7-9-----7-9-----7-9--|
C#||-----------------------------------| x2
G#||-----------------------------------|
C#||-----------------------------------|


Guitar 1/2:
D#||-----------------------------------|
A#||--7-8-----7-8-----7-8-----7-8------|
F#||------7-9-----7-9-----7-9-----7-9--|
C#||-----------------------------------| x2
G#||-----------------------------------|
C#||-----------------------------------|



Bridge
Guitar 1:
D#||---------------------------------------7-7-8----7-----------------------|
A#||--7-8-----7-8-8-10-7-8-----7-8-8-10-10-------10---8-10-7-8-----7-8------|
F#||------7-9--------------7-9---------------------------------7-9-----7-9--|
C#||------------------------------------------------------------------------|
G#||------------------------------------------------------------------------|
C#||------------------------------------------------------------------------|


Guitar 2:
D#||---------------------------------------------|
A#||---------------------------------------------|
F#||---------------------------------------------|
C#||--22--22--22--22--22--22--22--22--22--22--2--|
G#||--22--22--22--22--22--22--22--22--22--22--2--|
C#||--22--22--22--22--22--22--22--22--22--22--2--|



Guitar 1:
D#||-------------------------------------------------------------------|
A#||-------------------------------------------------------------------|
F#||-------------------------------------------------------------------|
C#||-------------------------------------------------------------------|
G#||--3-3-3---5-5-5---7-7-7---9-9-9---10-10-10---9-9-9---9-7-7---7--7--|
C#||-------------------------------------------------------------------|


Guitar 2:
D#||------------------------------------------------------------------------|
A#||------------------------------------------------------------------------|
F#||------------------------------------------------------------------------|
C#||------------------------------------------------------------------------|
G#||--3-3-3---5-5-5---7-7-7---9-9-9---10-10-10---9-9-9---10-10-10---10--10--|
C#||------------------------------------------------------------------------|



Guitar 1:
D#||---------------------------------------7-7-8----7-----------------------|
A#||--7-8-----7-8-8-10-7-8-----7-8-8-10-10-------10---8-10-7-8-----7-8------|
F#||------7-9--------------7-9---------------------------------7-9-----7-9--|
C#||------------------------------------------------------------------------|
G#||------------------------------------------------------------------------|
C#||------------------------------------------------------------------------|


Guitar 2:
D#||--------------------------------------------|
A#||--------------------------------------------|
F#||--------------------------------------------|
C#||--22--22--22--22--22--22--22--22--22222222--|
G#||--22--22--22--22--22--22--22--22--22222222--|
C#||--22--22--22--22--22--22--22--22--22222222--|



Interlude
Guitar 1:
D#||----7~----7~----5~----5~----5-7~--|
A#||--5-----5-----5-----5-----5-------|
F#||----------------------------------|
C#||----------------------------------| x3
G#||----------------------------------|
C#||----------------------------------|


D#||----7~----7~----5--|
A#||--5-----5-----5----|
F#||-------------------|
C#||-------------------|
G#||-------------------|
C#||-------------------|


Guitar 2:
D#||--------------------------------------------------|
A#||--------------------------------------------------|
F#||--------------------------------------------------|
C#||--2~--------4~--------2222222255555555-444444444--|
G#||--3~--------5~--------3333333333333333-555555555--|
C#||--------------------------------------------------|
                          ................ .....


Chorus
Guitar 1:
D#||-------------------------------------|-----------------------------7------|
A#||--8~---------8-------8-------10-8-7--|--8~---------8-------8---------8~---|
F#||--------7-9------7-9-----7-9---------|--------7-9------7-9-----7-9--------|
C#||------9--------9-------9-------------|------9--------9-------9------------|
G#||-------------------------------------|------------------------------------|
C#||-------------------------------------|------------------------------------|


D#||-------------------------------------|-----------------------------7------|
A#||--8~---------8-------8-------10-8-7--|--8~---------8-------8---------8-7--|
F#||--------7-9------7-9-----7-9---------|--------7-9------7-9-----7-9--------|
C#||------9--------9-------9-------------|------9--------9-------9------------| x2
G#||-------------------------------------|------------------------------------|
C#||-------------------------------------|------------------------------------|


Guitar 2:
D#||---------------------------------------------|---------------------------------------------|
A#||---------------------------------------------|---------------------------------------------|
F#||---------------------------------------------|--5--55--555--555--555-7--77--777--777--777--|
C#||--2--22--222--222--222-0--00--000--000--000--|--5--55--555--555--555-7--77--777--777--777--| x2
G#||--2--22--222--222--222-0--00--000--000--000--|--3--33--333--333--333-5--55--555--555--555--|
C#||--2--22--222--222--222-0--00--000--000--000--|---------------------------------------------|



Guitar 1:
D#||------------------------------------|------------------------------------|
A#||--0~--3-5-0-3-5-0-5-7-0-7-8-0-8-10--|--0~--3-5-0-3-5-0-5-7-0-7-8-0-8-10--|
F#||------------------------------------|------------------------------------|
C#||------------------------------------|------------------------------------|
G#||------------------------------------|------------------------------------|
C#||------------------------------------|------------------------------------|


D#||------------------------------------|-------------------------------------|
A#||--0~--3-5-0-3-5-0-5-7-0-7-8-0-8-10--|--0~--3-5-0-3-5-0-7---8-7---8-7---8--|
F#||------------------------------------|--------------------9-----9-----9----|
C#||------------------------------------|-------------------------------------|
G#||------------------------------------|-------------------------------------|
C#||------------------------------------|-------------------------------------|


Guitar 2:
D#||-----------------------------------------------------------------------------------------|
A#||-----------------------------------------------------------------------------------------|
F#||--5--55--555--555--555-7--77--777--777--777----------------------------------------------|
C#||--5--55--555--555--555-7--77--777--777--777--2--22--222--222--222--0--00--000--000--000--|
G#||--3--33--333--333--333-5--55--555--555--555--2--22--222--222--222--0--00--000--000--000--|
C#||---------------------------------------------2--22--222--222--222--0--00--000--000--000--|



Guitar 1:
D#||--------------------------------------7-7-7-7-8-8-8-8-------------7-7-7-7--|
A#||--0~--3-5-0-3-5-0-5-7-0-7-8-0-8-10-10-----------------10-10-10-10----------|
F#||---------------------------------------------------------------------------|
C#||---------------------------------------------------------------------------|
G#||---------------------------------------------------------------------------|
C#||---------------------------------------------------------------------------|


Guitar 2:
D#||-----------------------------------------|
A#||-----------------------------------------|
F#||--555--555--555--555--44444444-88888888--|
C#||--555--555--555--555--44444444-88888888--|
G#||--333--333--333--333--22222222-66666666--|
C#||-----------------------------------------|



Outro
Guitar 1:
D#||-------------------------------------------------|
A#||--8-7---8-7---8-7---8-7---8-7---8-7---8-7---8----|
F#||------9-----9-----9-----9-----9-----9-----9---9--|
C#||-------------------------------------------------|
G#||-------------------------------------------------|
C#||-------------------------------------------------|


Guitar 2:
D#||----------------------------------|
A#||----------------------------------|
F#||----------------------------------|
C#||--22--22--22--22--22--22--22--22--|
G#||--22--22--22--22--22--22--22--22--|
C#||--22--22--22--22--22--22--22--22--|




Tablature Legend
----------------
 h   hammer-on
 p   pull-off
 b   bend
 pb  pre-bend
 r   release bend
 ~   hold / vibrato
 .   palm mute
 /   slide up
 \   slide down
 *   pinch harmonic
 '   natural harmonic
 x   mute note
 T   tap

            
            
Suggest correction
Creating personal tab
Creating personal tab
You can edit any tab online and save it as your Personal.

You can edit, replace or remove any tab part or add personal notes – all changes will be seen only by you.

Personal tabs can be accessed anytime from any device, even offline.
Learn more »
Give kudos to tab author, rate the tab!
1 2 3 4 5
comments
print report bad tab
guest
You may want to rate the tab now too:
select rating
Wanna post a correction for this tab? Suggest correction