Oops, an error
Loading. Please wait.

Dance Bass Tab

version 1
version 1

Whole song

Interactive

22,185 views 27 this week
2 commentsread comments
1 2 3 4 5
poor
x 3
add to favorites
launch autoscroll
font size
0
reset
guitar tuner
Tab Pro tools
  • play this tab
  • loop segment
  • change instrument
  • show fretboard
  • metronome
Autoscroll
slow
fast
+/-
esc
set tempo
stop
Contributor
Hi folks! Heres another justice tune. Sorry if theres any mistakes
but the bass is very low and i couldnt here those low ends. Please
comment :D

Drop D tuning

G|
D|
A|
D|


intro
|-------------------------------------------------|
|-------------------------------------------------|
|--5----------3-4-5--------3h5//7--5-444-4-333-2--|
|----0h1--3h5-------0--3h5------------------------|

(0:42)
|--9h11--|
|--------|
|--------|
|--------|

main riff                                            repeat
|----------------------------------------------------------|
|-4-------------4--2-------------2--1-------1--------------|
|----------------------------------------------5-5-5-4-4-4-|
|---0h1h2-0h2h4------0h2h4-0h1h2------0h2h4----------------|

And thats it really.. the bass repeats the main riff over and over
over again. but with pauses inbetween some notes. or even pauses inbetween riffs.

i also like to play this along to it at 
(2:43)
|------------------2---------------|
|-4-4-4-4-4----2-4---4---4-4-4-4-2-|
|-----------0----------0-----------|
|----------------------------------|

enjoy :D



comments
We did not receive enough feedback on this tab! Please rate:
print report bad tab
1 2 3 4 5
2 comments total.
0 reply
minnaow wrote on June 3 2009, 12:58 pm

This is wrong at every level. You really need to train your ear, the main riff is mostly octaves.

0 reply
ninatran059 wrote on November 22 2010, 11:27 pm

i agree, this is terrible.

I want to post or [tab]
guest
You may want to rate the tab now too:
select rating
Please do not post tabs as comments. Select "correction" instead!