Oops, an error
Loading. Please wait.

Genesis Bass Tab

version 2
version 2

Whole song

Interactive

5,629 views 15 this week
1 commentread comment
1 2 3 4 5
x 7
add to favorites
launch autoscroll
font size
0
reset
guitar tuner
Autoscroll
slow
fast
+/-
esc
set tempo
stop
Help us to improve Ultimate-Guitar.com Take our survey!
×
Author
Difficulty
Tuning
intermediate
D A D G B E
-------------------------------------------------------------------------------
			     GENESIS - Justice
-------------------------------------------------------------------------------

Tabbed By : tomhine
e-mail: thine@hotmail.co.uk

Tuning: D-A-D-G 

Hi, this song hasn't been tabbed particularly well so I thought I'd have a bash.
I don't think It's 100% perfect so I've improvised on some bits. 
 
Intro:

G|---------------------------------------------------------------------------|
D|---------------------------------------------------------------------------|
A|-5--------5--8--5--7--5--8-------------------------------------------------|
D|---------------------------------------------------------------------------|

Intro (variation leading into verse):

G|---------------------------------------------------------------------------|
D|---------------------------------------------------------------------------|
A|-5--------5--8--5--7--5--8-----------------------1--3--4--------7----------|
D|----------------------------------5--7--8----------------------------------|

Verse:

G|---------------------------------------------------------------------------|
D|-0--------3-0------0----2-0-------0----0------------------------------------|
A|---------------3h5-----------3h5-------------------------------------------|          
D|-------------------------------------0-------------------------------------|

Verse (variation):

G|---------------------------------------------------------------------------|
D|-0--------3-0-------0---2-0--------0----------------------------------3--0-|
A|---------------3h5-----------3h5----------1--1/3--4-------3h4h5------------|
D|------------------------------------0--5---------------5-------------------|

Interlude:

G|---------------------------------------------------------------------------|
D|---------------------------------------------------------------------------|
A|-5--------4--5-x-5--------------------/5--5----5--5\----------------------|
D|---------------------------------------------------------------------------|
               S S S    
Outro (variation on intro):

G|-------------10----9----10-----------------10----9----10-------------------|
D|----------12----12---12-------12--------12----12---12-------12-------------|
A|-5-------------------------------------------------------------------------|
D|---------------------------------------------------------------------------|

G|----10----9----10---------------3--5--6--------9--------7------------------|
D|-12----12---12-------5--7--8----------------------------0------------------|
A|---------------------------------------------------------------------------|
D|---------------------------------------------------------------------------|


Hope you like the tab! Thanks for reading and If there are any mistakes feel free
to comment or e-mail me! Have fun with the song, loads of room for improv!

Tom,

| S  slap
| P  pop
| /  slide up
| \  slide down
| h  hammer-on
| p  pull-off
| ~  vibrato
| +  harmonic
| x  Mute note
===============================================================================
Suggest correction
comments
print report bad tab
1 comment total.
0 reply
Rethresher 53 May 16, 2015 07:22 AM, edited at 07:23 am

G|---------------------------------------------------------------------------|
D|-7--------7--10-7--9--7--10---7--------------------------------------------|
A|-5--------5--8--5--7--5--8----5-----5-7-8---8-10-11--14--------------------|
D|------------------------------------3-5-6---6-8- 9---12--------------------|

Sounds great, although I like to bring in an extra string to beef it up - give this a go for the intro. :) (this suggestion works fine in standard!)

guest
You may want to rate the tab now too:
select rating
Wanna post a correction for this tab? Suggest correction